  0
SECTION
  2
HEADER
  9
$ACADVER
  1
AC1015
  9
$ACADMAINTVER
 70
    20
  9
$DWGCODEPAGE
  3
ANSI_1252
  9
$INSBASE
 10
0.0
 20
0.0
 30
0.0
  9
$EXTMIN
 10
-0.000000043176172
 20
0.0000000232272441
 30
0.0
  9
$EXTMAX
 10
219.9999999568241
 20
240.0000000232271
 30
0.0
  9
$LIMMIN
 10
0.0
 20
0.0
  9
$LIMMAX
 10
12.0
 20
9.0
  9
$ORTHOMODE
 70
     1
  9
$REGENMODE
 70
     1
  9
$FILLMODE
 70
     1
  9
$QTEXTMODE
 70
     0
  9
$MIRRTEXT
 70
     0
  9
$LTSCALE
 40
1.0
  9
$ATTMODE
 70
     1
  9
$TEXTSIZE
 40
0.2
  9
$TRACEWID
 40
0.05
  9
$TEXTSTYLE
  7
Standard
  9
$CLAYER
  8
0
  9
$CELTYPE
  6
ByLayer
  9
$CECOLOR
 62
   256
  9
$CELTSCALE
 40
1.0
  9
$DISPSILH
 70
     0
  9
$DIMSCALE
 40
96000.0
  9
$DIMASZ
 40
0.18
  9
$DIMEXO
 40
0.0625
  9
$DIMDLI
 40
0.38
  9
$DIMRND
 40
0.0
  9
$DIMDLE
 40
0.0
  9
$DIMEXE
 40
0.18
  9
$DIMTP
 40
0.0
  9
$DIMTM
 40
0.0
  9
$DIMTXT
 40
0.18
  9
$DIMCEN
 40
0.09
  9
$DIMTSZ
 40
0.0
  9
$DIMTOL
 70
     0
  9
$DIMLIM
 70
     0
  9
$DIMTIH
 70
     1
  9
$DIMTOH
 70
     1
  9
$DIMSE1
 70
     0
  9
$DIMSE2
 70
     0
  9
$DIMTAD
 70
     0
  9
$DIMZIN
 70
     0
  9
$DIMBLK
  1

  9
$DIMASO
 70
     1
  9
$DIMSHO
 70
     1
  9
$DIMPOST
  1

  9
$DIMAPOST
  1

  9
$DIMALT
 70
     0
  9
$DIMALTD
 70
     2
  9
$DIMALTF
 40
25.4
  9
$DIMLFAC
 40
1.0
  9
$DIMTOFL
 70
     0
  9
$DIMTVP
 40
0.0
  9
$DIMTIX
 70
     0
  9
$DIMSOXD
 70
     0
  9
$DIMSAH
 70
     0
  9
$DIMBLK1
  1

  9
$DIMBLK2
  1

  9
$DIMSTYLE
  2
Standard
  9
$DIMCLRD
 70
     0
  9
$DIMCLRE
 70
     0
  9
$DIMCLRT
 70
     0
  9
$DIMTFAC
 40
1.0
  9
$DIMGAP
 40
0.09
  9
$DIMJUST
 70
     0
  9
$DIMSD1
 70
     0
  9
$DIMSD2
 70
     0
  9
$DIMTOLJ
 70
     1
  9
$DIMTZIN
 70
     0
  9
$DIMALTZ
 70
     0
  9
$DIMALTTZ
 70
     0
  9
$DIMUPT
 70
     0
  9
$DIMDEC
 70
     4
  9
$DIMTDEC
 70
     4
  9
$DIMALTU
 70
     2
  9
$DIMALTTD
 70
     2
  9
$DIMTXSTY
  7
Standard
  9
$DIMAUNIT
 70
     0
  9
$DIMADEC
 70
     0
  9
$DIMALTRND
 40
0.0
  9
$DIMAZIN
 70
     0
  9
$DIMDSEP
 70
    46
  9
$DIMATFIT
 70
     3
  9
$DIMFRAC
 70
     0
  9
$DIMLDRBLK
  1

  9
$DIMLUNIT
 70
     2
  9
$DIMLWD
 70
    -2
  9
$DIMLWE
 70
    -2
  9
$DIMTMOVE
 70
     0
  9
$LUNITS
 70
     2
  9
$LUPREC
 70
     4
  9
$SKETCHINC
 40
0.1
  9
$FILLETRAD
 40
0.0
  9
$AUNITS
 70
     0
  9
$AUPREC
 70
     2
  9
$MENU
  1
.
  9
$ELEVATION
 40
0.0
  9
$PELEVATION
 40
0.0
  9
$THICKNESS
 40
0.0
  9
$LIMCHECK
 70
     0
  9
$CHAMFERA
 40
0.0
  9
$CHAMFERB
 40
0.0
  9
$CHAMFERC
 40
0.0
  9
$CHAMFERD
 40
0.0
  9
$SKPOLY
 70
     0
  9
$TDCREATE
 40
2455020.457856620
  9
$TDUCREATE
 40
2455020.332856620
  9
$TDUPDATE
 40
2455030.435165104
  9
$TDUUPDATE
 40
2455030.310165104
  9
$TDINDWG
 40
0.6497643519
  9
$TDUSRTIMER
 40
0.6497641667
  9
$USRTIMER
 70
     1
  9
$ANGBASE
 50
0.0
  9
$ANGDIR
 70
     0
  9
$PDMODE
 70
     0
  9
$PDSIZE
 40
0.0
  9
$PLINEWID
 40
0.0
  9
$SPLFRAME
 70
     0
  9
$SPLINETYPE
 70
     6
  9
$SPLINESEGS
 70
     8
  9
$HANDSEED
  5
12D0D
  9
$SURFTAB1
 70
     6
  9
$SURFTAB2
 70
     6
  9
$SURFTYPE
 70
     6
  9
$SURFU
 70
     6
  9
$SURFV
 70
     6
  9
$UCSBASE
  2

  9
$UCSNAME
  2

  9
$UCSORG
 10
0.0
 20
0.0
 30
0.0
  9
$UCSXDIR
 10
1.0
 20
0.0
 30
0.0
  9
$UCSYDIR
 10
0.0
 20
1.0
 30
0.0
  9
$UCSORTHOREF
  2

  9
$UCSORTHOVIEW
 70
     0
  9
$UCSORGTOP
 10
0.0
 20
0.0
 30
0.0
  9
$UCSORGBOTTOM
 10
0.0
 20
0.0
 30
0.0
  9
$UCSORGLEFT
 10
0.0
 20
0.0
 30
0.0
  9
$UCSORGRIGHT
 10
0.0
 20
0.0
 30
0.0
  9
$UCSORGFRONT
 10
0.0
 20
0.0
 30
0.0
  9
$UCSORGBACK
 10
0.0
 20
0.0
 30
0.0
  9
$PUCSBASE
  2

  9
$PUCSNAME
  2

  9
$PUCSORG
 10
0.0
 20
0.0
 30
0.0
  9
$PUCSXDIR
 10
1.0
 20
0.0
 30
0.0
  9
$PUCSYDIR
 10
0.0
 20
1.0
 30
0.0
  9
$PUCSORTHOREF
  2

  9
$PUCSORTHOVIEW
 70
     0
  9
$PUCSORGTOP
 10
0.0
 20
0.0
 30
0.0
  9
$PUCSORGBOTTOM
 10
0.0
 20
0.0
 30
0.0
  9
$PUCSORGLEFT
 10
0.0
 20
0.0
 30
0.0
  9
$PUCSORGRIGHT
 10
0.0
 20
0.0
 30
0.0
  9
$PUCSORGFRONT
 10
0.0
 20
0.0
 30
0.0
  9
$PUCSORGBACK
 10
0.0
 20
0.0
 30
0.0
  9
$USERI1
 70
     0
  9
$USERI2
 70
     0
  9
$USERI3
 70
     0
  9
$USERI4
 70
     0
  9
$USERI5
 70
     0
  9
$USERR1
 40
0.0
  9
$USERR2
 40
0.0
  9
$USERR3
 40
0.0
  9
$USERR4
 40
0.0
  9
$USERR5
 40
0.0
  9
$WORLDVIEW
 70
     1
  9
$SHADEDGE
 70
     3
  9
$SHADEDIF
 70
    70
  9
$TILEMODE
 70
     1
  9
$MAXACTVP
 70
    64
  9
$PINSBASE
 10
0.0
 20
0.0
 30
0.0
  9
$PLIMCHECK
 70
     0
  9
$PEXTMIN
 10
0.0
 20
0.0
 30
0.0
  9
$PEXTMAX
 10
0.0
 20
0.0
 30
0.0
  9
$PLIMMIN
 10
0.0
 20
0.0
  9
$PLIMMAX
 10
12.0
 20
9.0
  9
$UNITMODE
 70
     0
  9
$VISRETAIN
 70
     1
  9
$PLINEGEN
 70
     0
  9
$PSLTSCALE
 70
     1
  9
$TREEDEPTH
 70
  3020
  9
$CMLSTYLE
  2
Standard
  9
$CMLJUST
 70
     0
  9
$CMLSCALE
 40
1.0
  9
$PROXYGRAPHICS
 70
     1
  9
$MEASUREMENT
 70
     1
  9
$CELWEIGHT
370
    -1
  9
$ENDCAPS
280
     0
  9
$JOINSTYLE
280
     0
  9
$LWDISPLAY
290
     0
  9
$INSUNITS
 70
     4
  9
$HYPERLINKBASE
  1

  9
$STYLESHEET
  1

  9
$XEDIT
290
     1
  9
$CEPSNTYPE
380
     0
  9
$PSTYLEMODE
290
     1
  9
$FINGERPRINTGUID
  2
{3918AD87-E185-4CB7-8CA6-A53EEA96738C}
  9
$VERSIONGUID
  2
{24C45ADD-6AFE-4293-99F7-F4F004E7681C}
  9
$EXTNAMES
290
     1
  9
$PSVPSCALE
 40
0.0
  9
$OLESTARTUP
290
     0
  0
ENDSEC
  0
SECTION
  2
CLASSES
  0
CLASS
  1
ACDBDICTIONARYWDFLT
  2
AcDbDictionaryWithDefault
  3
ObjectDBX Classes
 90
        0
280
     0
281
     0
  0
CLASS
  1
ACDBPLACEHOLDER
  2
AcDbPlaceHolder
  3
ObjectDBX Classes
 90
        0
280
     0
281
     0
  0
CLASS
  1
LAYOUT
  2
AcDbLayout
  3
ObjectDBX Classes
 90
        0
280
     0
281
     0
  0
CLASS
  1
DICTIONARYVAR
  2
AcDbDictionaryVar
  3
ObjectDBX Classes
 90
        0
280
     0
281
     0
  0
CLASS
  1
TABLESTYLE
  2
AcDbTableStyle
  3
ObjectDBX Classes
 90
     4095
280
     0
281
     0
  0
CLASS
  1
MATERIAL
  2
AcDbMaterial
  3
ObjectDBX Classes
 90
     1024
280
     0
281
     0
  0
CLASS
  1
VISUALSTYLE
  2
AcDbVisualStyle
  3
ObjectDBX Classes
 90
     4095
280
     0
281
     0
  0
CLASS
  1
EXACXREFPANELOBJECT
  2
ExAcXREFPanelObject
  3
EXAC_ESW
 90
     1025
280
     0
281
     0
  0
CLASS
  1
NPOCOLLECTION
  2
AcDbImpNonPersistentObjectsCollection
  3
ObjectDBX Classes
 90
     1153
280
     0
281
     0
  0
CLASS
  1
AEC_NOTIFICATION_TRACKER
  2
AecDbNotificationTracker
  3
AecBase50|Product Desc: Autodesk Architectural Desktop 2007 |Company: Autodesk,Inc. |WEB Address: www.autodesk.com
 90
      129
280
     0
281
     0
  0
CLASS
  1
AEC_DISP_REP_ANCHOR_BUB_TO_GRID
  2
AecDbDispRepAnchorBubToGrid
  3
AecStructureBase50|Product Desc: Autodesk Architectural Desktop 2007 |Company: Autodesk,Inc. |WEB Address: www.autodesk.com
 90
      129
280
     0
281
     0
  0
CLASS
  1
AEC_DISP_PROPS_ENT
  2
AecDbDispPropsEnt
  3
AecBase50|Product Desc: Autodesk Architectural Desktop 2007 |Company: Autodesk,Inc. |WEB Address: www.autodesk.com
 90
      129
280
     0
281
     0
  0
CLASS
  1
AEC_DISP_REP_ANCHOR_BUB_TO_GRID_MODEL
  2
AecDbDispRepAnchorBubToGridMdl
  3
AecStructureBase50|Product Desc: Autodesk Architectural Desktop 2007 |Company: Autodesk,Inc. |WEB Address: www.autodesk.com
 90
      129
280
     0
281
     0
  0
CLASS
  1
AEC_DISP_REP_ANCHOR_BUB_TO_GRID_RCP
  2
AecDbDispRepAnchorBubToGridRcp
  3
AecStructureBase50|Product Desc: Autodesk Architectural Desktop 2007 |Company: Autodesk,Inc. |WEB Address: www.autodesk.com
 90
      129
280
     0
281
     0
  0
CLASS
  1
AEC_DISP_REP_COLUMN_GRID
  2
AecDbDispRepColumnGrid
  3
AecStructureBase50|Product Desc: Autodesk Architectural Desktop 2007 |Company: Autodesk,Inc. |WEB Address: www.autodesk.com
 90
      129
280
     0
281
     0
  0
CLASS
  1
AEC_VARS_DWG_SETUP
  2
AecDbVarsDwgSetup
  3
AecBase50|Product Desc: Autodesk Architectural Desktop 2007 |Company: Autodesk,Inc. |WEB Address: www.autodesk.com
 90
      129
280
     0
281
     0
  0
CLASS
  1
AEC_DISP_PROPS_LAYOUT_GRID2D
  2
AecDbDispPropsLayoutGrid2d
  3
AecBase50|Product Desc: Autodesk Architectural Desktop 2007 |Company: Autodesk,Inc. |WEB Address: www.autodesk.com
 90
      129
280
     0
281
     0
  0
CLASS
  1
AEC_DISP_REP_COLUMN_GRID_MODEL
  2
AecDbDispRepColumnGridModel
  3
AecStructureBase50|Product Desc: Autodesk Architectural Desktop 2007 |Company: Autodesk,Inc. |WEB Address: www.autodesk.com
 90
      129
280
     0
281
     0
  0
CLASS
  1
AEC_DISP_REP_COLUMN_GRID_RCP
  2
AecDbDispRepColumnGridRcp
  3
AecStructureBase50|Product Desc: Autodesk Architectural Desktop 2007 |Company: Autodesk,Inc. |WEB Address: www.autodesk.com
 90
      129
280
     0
281
     0
  0
CLASS
  1
AECS_DISP_REP_MEMBER_ELEVATION_DESIGN
  2
AecsDbDispRepMemberElevationDesign
  3
AecStructureBase50|Product Desc: Autodesk Architectural Desktop 2007 |Company: Autodesk,Inc. |WEB Address: www.autodesk.com
 90
      129
280
     0
281
     0
  0
CLASS
  1
AECS_DISP_PROPS_MEMBER_PROJECTED
  2
AecsDbDispPropsMemberProjected
  3
AecStructureBase50|Product Desc: Autodesk Architectural Desktop 2007 |Company: Autodesk,Inc. |WEB Address: www.autodesk.com
 90
      129
280
     0
281
     0
  0
CLASS
  1
AECS_DISP_REP_MEMBER_ELEVATION_DETAIL
  2
AecsDbDispRepMemberElevationDetail
  3
AecStructureBase50|Product Desc: Autodesk Architectural Desktop 2007 |Company: Autodesk,Inc. |WEB Address: www.autodesk.com
 90
      129
280
     0
281
     0
  0
CLASS
  1
AECS_DISP_REP_MEMBER_LOGICAL
  2
AecsDbDispRepMemberLogical
  3
AecStructureBase50|Product Desc: Autodesk Architectural Desktop 2007 |Company: Autodesk,Inc. |WEB Address: www.autodesk.com
 90
      129
280
     0
281
     0
  0
CLASS
  1
AECS_DISP_PROPS_MEMBER_LOGICAL
  2
AecsDbDispPropsMemberLogical
  3
AecStructureBase50|Product Desc: Autodesk Architectural Desktop 2007 |Company: Autodesk,Inc. |WEB Address: www.autodesk.com
 90
      129
280
     0
281
     0
  0
CLASS
  1
AECS_DISP_REP_MEMBER_MODEL_DESIGN
  2
AecsDbDispRepMemberModelDesign
  3
AecStructureBase50|Product Desc: Autodesk Architectural Desktop 2007 |Company: Autodesk,Inc. |WEB Address: www.autodesk.com
 90
      129
280
     0
281
     0
  0
CLASS
  1
AECS_DISP_PROPS_MEMBER
  2
AecsDbDispPropsMember
  3
AecStructureBase50|Product Desc: Autodesk Architectural Desktop 2007 |Company: Autodesk,Inc. |WEB Address: www.autodesk.com
 90
      129
280
     0
281
     0
  0
CLASS
  1
AECS_DISP_REP_MEMBER_MODEL_DETAIL
  2
AecsDbDispRepMemberModelDetail
  3
AecStructureBase50|Product Desc: Autodesk Architectural Desktop 2007 |Company: Autodesk,Inc. |WEB Address: www.autodesk.com
 90
      129
280
     0
281
     0
  0
CLASS
  1
AECS_DISP_REP_MEMBER_PLAN_DESIGN
  2
AecsDbDispRepMemberPlanDesign
  3
AecStructureBase50|Product Desc: Autodesk Architectural Desktop 2007 |Company: Autodesk,Inc. |WEB Address: www.autodesk.com
 90
      129
280
     0
281
     0
  0
CLASS
  1
AECS_DISP_PROPS_MEMBER_PLAN
  2
AecsDbDispPropsMemberPlan
  3
AecStructureBase50|Product Desc: Autodesk Architectural Desktop 2007 |Company: Autodesk,Inc. |WEB Address: www.autodesk.com
 90
      129
280
     0
281
     0
  0
CLASS
  1
AECS_DISP_REP_MEMBER_PLAN_DETAIL
  2
AecsDbDispRepMemberPlanDetail
  3
AecStructureBase50|Product Desc: Autodesk Architectural Desktop 2007 |Company: Autodesk,Inc. |WEB Address: www.autodesk.com
 90
      129
280
     0
281
     0
  0
CLASS
  1
AECS_DISP_REP_MEMBER_PLAN_SKETCH
  2
AecsDbDispRepMemberPlanSketch
  3
AecStructureBase50|Product Desc: Autodesk Architectural Desktop 2007 |Company: Autodesk,Inc. |WEB Address: www.autodesk.com
 90
      129
280
     0
281
     0
  0
CLASS
  1
AECS_DISP_PROPS_MEMBER_PLAN_SKETCH
  2
AecsDbDispPropsMemberPlanSketch
  3
AecStructureBase50|Product Desc: Autodesk Architectural Desktop 2007 |Company: Autodesk,Inc. |WEB Address: www.autodesk.com
 90
      129
280
     0
281
     0
  0
CLASS
  1
AEC_AECDBDISPREPBDGELEVLINEPLAN100
  2
AecDbDispRepBdgElevLinePlan100
  3
AecArchDACHBase50|Product Desc: Autodesk Architectural Desktop 2007 |Company: Autodesk,Inc. |WEB Address: www.autodesk.com
 90
      129
280
     0
281
     0
  0
CLASS
  1
AEC_DISP_PROPS_CLIP_VOLUME
  2
AecDbDispPropsClipVol
  3
AecBase50|Product Desc: Autodesk Architectural Desktop 2007 |Company: Autodesk,Inc. |WEB Address: www.autodesk.com
 90
      129
280
     0
281
     0
  0
CLASS
  1
AEC_AECDBDISPREPBDGSECTIONLINEPLAN100
  2
AecDbDispRepBdgSectionLinePlan100
  3
AecArchDACHBase50|Product Desc: Autodesk Architectural Desktop 2007 |Company: Autodesk,Inc. |WEB Address: www.autodesk.com
 90
      129
280
     0
281
     0
  0
CLASS
  1
AEC_AECDBDISPREPCEILINGGRIDPLAN100
  2
AecDbDispRepCeilingGridPlan100
  3
AecArchDACHBase50|Product Desc: Autodesk Architectural Desktop 2007 |Company: Autodesk,Inc. |WEB Address: www.autodesk.com
 90
      129
280
     0
281
     0
  0
CLASS
  1
AEC_AECDBDISPREPCOLUMNGRIDPLAN100
  2
AecDbDispRepColumnGridPlan100
  3
AecArchDACHBase50|Product Desc: Autodesk Architectural Desktop 2007 |Company: Autodesk,Inc. |WEB Address: www.autodesk.com
 90
      129
280
     0
281
     0
  0
CLASS
  1
AEC_AECDBDISPREPCURTAINWALLLAYOUTPLAN100
  2
AecDbDispRepCurtainWallLayoutPlan100
  3
AecArchDACHBase50|Product Desc: Autodesk Architectural Desktop 2007 |Company: Autodesk,Inc. |WEB Address: www.autodesk.com
 90
      129
280
     0
281
     0
  0
CLASS
  1
AEC_DISP_PROPS_GRID_ASSEMBLY_PLAN
  2
AecDbDispPropsGridAssemblyPlan
  3
AecArchBase50|Product Desc: Autodesk Architectural Desktop 2007 |Company: Autodesk,Inc. |WEB Address: www.autodesk.com
 90
      129
280
     0
281
     0
  0
CLASS
  1
AEC_AECDBDISPREPCURTAINWALLUNITPLAN100
  2
AecDbDispRepCurtainWallUnitPlan100
  3
AecArchDACHBase50|Product Desc: Autodesk Architectural Desktop 2007 |Company: Autodesk,Inc. |WEB Address: www.autodesk.com
 90
      129
280
     0
281
     0
  0
CLASS
  1
AEC_AECDBDISPREPMVBLOCKREFPLAN100
  2
AecDbDispRepMvBlockRefPlan100
  3
AecArchDACHBase50|Product Desc: Autodesk Architectural Desktop 2007 |Company: Autodesk,Inc. |WEB Address: www.autodesk.com
 90
      129
280
     0
281
     0
  0
CLASS
  1
AEC_AECDBDISPREPROOFPLAN100
  2
AecDbDispRepRoofPlan100
  3
AecArchDACHBase50|Product Desc: Autodesk Architectural Desktop 2007 |Company: Autodesk,Inc. |WEB Address: www.autodesk.com
 90
      129
280
     0
281
     0
  0
CLASS
  1
AEC_DISP_PROPS_ROOF
  2
AecDbDispPropsRoof
  3
AecArchBase50|Product Desc: Autodesk Architectural Desktop 2007 |Company: Autodesk,Inc. |WEB Address: www.autodesk.com
 90
      129
280
     0
281
     0
  0
CLASS
  1
AEC_AECDBDISPREPROOFSLABPLAN100
  2
AecDbDispRepRoofSlabPlan100
  3
AecArchDACHBase50|Product Desc: Autodesk Architectural Desktop 2007 |Company: Autodesk,Inc. |WEB Address: www.autodesk.com
 90
      129
280
     0
281
     0
  0
CLASS
  1
AEC_DISP_PROPS_ROOFSLAB_PLAN
  2
AecDbDispPropsRoofSlabPlan
  3
AecArchBase50|Product Desc: Autodesk Architectural Desktop 2007 |Company: Autodesk,Inc. |WEB Address: www.autodesk.com
 90
      129
280
     0
281
     0
  0
CLASS
  1
AEC_AECDBDISPREPSLABPLAN100
  2
AecDbDispRepSlabPlan100
  3
AecArchDACHBase50|Product Desc: Autodesk Architectural Desktop 2007 |Company: Autodesk,Inc. |WEB Address: www.autodesk.com
 90
      129
280
     0
281
     0
  0
CLASS
  1
AEC_DISP_PROPS_SLAB_PLAN
  2
AecDbDispPropsSlabPlan
  3
AecArchBase50|Product Desc: Autodesk Architectural Desktop 2007 |Company: Autodesk,Inc. |WEB Address: www.autodesk.com
 90
      129
280
     0
281
     0
  0
CLASS
  1
AEC_AECDBDISPREPSPACEPLAN100
  2
AecDbDispRepSpacePlan100
  3
AecArchDACHBase50|Product Desc: Autodesk Architectural Desktop 2007 |Company: Autodesk,Inc. |WEB Address: www.autodesk.com
 90
      129
280
     0
281
     0
  0
CLASS
  1
AEC_DISP_PROPS_SPACE_PLAN
  2
AecDbDispPropsSpacePlan
  3
AecArchBase50|Product Desc: Autodesk Architectural Desktop 2007 |Company: Autodesk,Inc. |WEB Address: www.autodesk.com
 90
      129
280
     0
281
     0
  0
CLASS
  1
AEC_AECDBDISPREPWALLPLAN100
  2
AecDbDispRepWallPlan100
  3
AecArchDACHBase50|Product Desc: Autodesk Architectural Desktop 2007 |Company: Autodesk,Inc. |WEB Address: www.autodesk.com
 90
      129
280
     0
281
     0
  0
CLASS
  1
AEC_DISP_PROPS_WALL_PLAN
  2
AecDbDispPropsWallPlan
  3
AecArchBase50|Product Desc: Autodesk Architectural Desktop 2007 |Company: Autodesk,Inc. |WEB Address: www.autodesk.com
 90
      129
280
     0
281
     0
  0
CLASS
  1
AEC_AECDBDISPREPWINDOWASSEMBLYPLAN100
  2
AecDbDispRepWindowAssemblyPlan100
  3
AecArchDACHBase50|Product Desc: Autodesk Architectural Desktop 2007 |Company: Autodesk,Inc. |WEB Address: www.autodesk.com
 90
      129
280
     0
281
     0
  0
CLASS
  1
AEC_AECDBDISPREPZONE100
  2
AecDbDispRepZonePlan100
  3
AecArchDACHBase50|Product Desc: Autodesk Architectural Desktop 2007 |Company: Autodesk,Inc. |WEB Address: www.autodesk.com
 90
      129
280
     0
281
     0
  0
CLASS
  1
AEC_DISP_PROPS_ZONE
  2
AecDbDispPropsZone
  3
AecArchBase50|Product Desc: Autodesk Architectural Desktop 2007 |Company: Autodesk,Inc. |WEB Address: www.autodesk.com
 90
      129
280
     0
281
     0
  0
CLASS
  1
AEC_AECDBDISPREPBDGELEVLINEPLAN50
  2
AecDbDispRepBdgElevLinePlan50
  3
AecArchDACHBase50|Product Desc: Autodesk Architectural Desktop 2007 |Company: Autodesk,Inc. |WEB Address: www.autodesk.com
 90
      129
280
     0
281
     0
  0
CLASS
  1
AEC_AECDBDISPREPBDGSECTIONLINEPLAN50
  2
AecDbDispRepBdgSectionLinePlan50
  3
AecArchDACHBase50|Product Desc: Autodesk Architectural Desktop 2007 |Company: Autodesk,Inc. |WEB Address: www.autodesk.com
 90
      129
280
     0
281
     0
  0
CLASS
  1
AEC_AECDBDISPREPCEILINGGRIDPLAN50
  2
AecDbDispRepCeilingGridPlan50
  3
AecArchDACHBase50|Product Desc: Autodesk Architectural Desktop 2007 |Company: Autodesk,Inc. |WEB Address: www.autodesk.com
 90
      129
280
     0
281
     0
  0
CLASS
  1
AEC_AECDBDISPREPCOLUMNGRIDPLAN50
  2
AecDbDispRepColumnGridPlan50
  3
AecArchDACHBase50|Product Desc: Autodesk Architectural Desktop 2007 |Company: Autodesk,Inc. |WEB Address: www.autodesk.com
 90
      129
280
     0
281
     0
  0
CLASS
  1
AEC_AECDBDISPREPCURTAINWALLLAYOUTPLAN50
  2
AecDbDispRepCurtainWallLayoutPlan50
  3
AecArchDACHBase50|Product Desc: Autodesk Architectural Desktop 2007 |Company: Autodesk,Inc. |WEB Address: www.autodesk.com
 90
      129
280
     0
281
     0
  0
CLASS
  1
AEC_AECDBDISPREPCURTAINWALLUNITPLAN50
  2
AecDbDispRepCurtainWallUnitPlan50
  3
AecArchDACHBase50|Product Desc: Autodesk Architectural Desktop 2007 |Company: Autodesk,Inc. |WEB Address: www.autodesk.com
 90
      129
280
     0
281
     0
  0
CLASS
  1
AEC_AECDBDISPREPMVBLOCKREFPLAN50
  2
AecDbDispRepMvBlockRefPlan50
  3
AecArchDACHBase50|Product Desc: Autodesk Architectural Desktop 2007 |Company: Autodesk,Inc. |WEB Address: www.autodesk.com
 90
      129
280
     0
281
     0
  0
CLASS
  1
AEC_AECDBDISPREPROOFPLAN50
  2
AecDbDispRepRoofPlan50
  3
AecArchDACHBase50|Product Desc: Autodesk Architectural Desktop 2007 |Company: Autodesk,Inc. |WEB Address: www.autodesk.com
 90
      129
280
     0
281
     0
  0
CLASS
  1
AEC_AECDBDISPREPROOFSLABPLAN50
  2
AecDbDispRepRoofSlabPlan50
  3
AecArchDACHBase50|Product Desc: Autodesk Architectural Desktop 2007 |Company: Autodesk,Inc. |WEB Address: www.autodesk.com
 90
      129
280
     0
281
     0
  0
CLASS
  1
AEC_AECDBDISPREPSLABPLAN50
  2
AecDbDispRepSlabPlan50
  3
AecArchDACHBase50|Product Desc: Autodesk Architectural Desktop 2007 |Company: Autodesk,Inc. |WEB Address: www.autodesk.com
 90
      129
280
     0
281
     0
  0
CLASS
  1
AEC_AECDBDISPREPSPACEPLAN50
  2
AecDbDispRepSpacePlan50
  3
AecArchDACHBase50|Product Desc: Autodesk Architectural Desktop 2007 |Company: Autodesk,Inc. |WEB Address: www.autodesk.com
 90
      129
280
     0
281
     0
  0
CLASS
  1
AEC_AECDBDISPREPWALLPLAN50
  2
AecDbDispRepWallPlan50
  3
AecArchDACHBase50|Product Desc: Autodesk Architectural Desktop 2007 |Company: Autodesk,Inc. |WEB Address: www.autodesk.com
 90
      129
280
     0
281
     0
  0
CLASS
  1
AEC_AECDBDISPREPWINDOWASSEMBLYPLAN50
  2
AecDbDispRepWindowAssemblyPlan50
  3
AecArchDACHBase50|Product Desc: Autodesk Architectural Desktop 2007 |Company: Autodesk,Inc. |WEB Address: www.autodesk.com
 90
      129
280
     0
281
     0
  0
CLASS
  1
AEC_AECDBDISPREPZONE50
  2
AecDbDispRepZonePlan50
  3
AecArchDACHBase50|Product Desc: Autodesk Architectural Desktop 2007 |Company: Autodesk,Inc. |WEB Address: www.autodesk.com
 90
      129
280
     0
281
     0
  0
CLASS
  1
AEC_DB_DISP_REP_DIM_GROUP_PLAN100
  2
AecDbDispRepDimGroupPlan100
  3
AecArchDACHBase50|Product Desc: Autodesk Architectural Desktop 2007 |Company: Autodesk,Inc. |WEB Address: www.autodesk.com
 90
      129
280
     0
281
     0
  0
CLASS
  1
AEC_DISP_PROPS_DIM
  2
AecDbDispPropsDimGroup
  3
AecArchDACHBase50|Product Desc: Autodesk Architectural Desktop 2007 |Company: Autodesk,Inc. |WEB Address: www.autodesk.com
 90
      129
280
     0
281
     0
  0
CLASS
  1
AEC_DB_DISP_REP_DIM_GROUP_PLAN50
  2
AecDbDispRepDimGroupPlan50
  3
AecArchDACHBase50|Product Desc: Autodesk Architectural Desktop 2007 |Company: Autodesk,Inc. |WEB Address: www.autodesk.com
 90
      129
280
     0
281
     0
  0
CLASS
  1
AEC_DB_DISP_REP_DIM_GROUP_PLAN
  2
AecDbDispRepDimGroupPlan
  3
AecArchDACHBase50|Product Desc: Autodesk Architectural Desktop 2007 |Company: Autodesk,Inc. |WEB Address: www.autodesk.com
 90
      129
280
     0
281
     0
  0
CLASS
  1
AEC_DISP_REP_DOOR_PLAN_50
  2
AecDbDispRepDoorPlan50
  3
AecArchDACHBase50|Product Desc: Autodesk Architectural Desktop 2007 |Company: Autodesk,Inc. |WEB Address: www.autodesk.com
 90
      129
280
     0
281
     0
  0
CLASS
  1
AEC_DISP_PROPS_DOOR_PLAN_50
  2
AecDbDispPropsDoorPlan50
  3
AecArchDACHBase50|Product Desc: Autodesk Architectural Desktop 2007 |Company: Autodesk,Inc. |WEB Address: www.autodesk.com
 90
      129
280
     0
281
     0
  0
CLASS
  1
AEC_DISP_REP_DOOR_PLAN_HEKTO
  2
AecDbDispRepDoorPlanHekto
  3
AecArchDACHBase50|Product Desc: Autodesk Architectural Desktop 2007 |Company: Autodesk,Inc. |WEB Address: www.autodesk.com
 90
      129
280
     0
281
     0
  0
CLASS
  1
AEC_DISP_PROPS_DOOR_PLAN_100
  2
AecDbDispPropsDoorPlan100
  3
AecArchDACHBase50|Product Desc: Autodesk Architectural Desktop 2007 |Company: Autodesk,Inc. |WEB Address: www.autodesk.com
 90
      129
280
     0
281
     0
  0
CLASS
  1
AEC_DISP_REP_DOOR_THRESHOLD_SYMBOL_PLAN
  2
AecDbDispRepDoorThresholdSymbolPlan
  3
AecArchDACHBase50|Product Desc: Autodesk Architectural Desktop 2007 |Company: Autodesk,Inc. |WEB Address: www.autodesk.com
 90
      129
280
     0
281
     0
  0
CLASS
  1
AEC_DISP_PROPS_DOOR_THRESHOLD_SYMBOL_PLAN
  2
AecDbDispPropsDoorThresholdSymbolPlan
  3
AecArchDACHBase50|Product Desc: Autodesk Architectural Desktop 2007 |Company: Autodesk,Inc. |WEB Address: www.autodesk.com
 90
      129
280
     0
281
     0
  0
CLASS
  1
AEC_DISPREPAECDBDISPREPMASSELEMPLAN100
  2
AecDbDispRepMassElemPlan100
  3
AecArchDACHBase50|Product Desc: Autodesk Architectural Desktop 2007 |Company: Autodesk,Inc. |WEB Address: www.autodesk.com
 90
      129
280
     0
281
     0
  0
CLASS
  1
AEC_DISPROPSMASSELEMPLANCOMMON
  2
AecDbDispPropsMassElemPlanCommon
  3
AecArchDACHBase50|Product Desc: Autodesk Architectural Desktop 2007 |Company: Autodesk,Inc. |WEB Address: www.autodesk.com
 90
      129
280
     0
281
     0
  0
CLASS
  1
AEC_DISPREPAECDBDISPREPMASSELEMPLAN50
  2
AecDbDispRepMassElemPlan50
  3
AecArchDACHBase50|Product Desc: Autodesk Architectural Desktop 2007 |Company: Autodesk,Inc. |WEB Address: www.autodesk.com
 90
      129
280
     0
281
     0
  0
CLASS
  1
AEC_DISPREPAECDBDISPREPMASSGROUPPLAN100
  2
AecDbDispRepMassGroupPlan100
  3
AecArchDACHBase50|Product Desc: Autodesk Architectural Desktop 2007 |Company: Autodesk,Inc. |WEB Address: www.autodesk.com
 90
      129
280
     0
281
     0
  0
CLASS
  1
AEC_DISPROPSMASSGROUPPLANCOMMON
  2
AecDbDispPropsMassGroupPlanCommon
  3
AecArchDACHBase50|Product Desc: Autodesk Architectural Desktop 2007 |Company: Autodesk,Inc. |WEB Address: www.autodesk.com
 90
      129
280
     0
281
     0
  0
CLASS
  1
AEC_DISPREPAECDBDISPREPMASSGROUPPLAN50
  2
AecDbDispRepMassGroupPlan50
  3
AecArchDACHBase50|Product Desc: Autodesk Architectural Desktop 2007 |Company: Autodesk,Inc. |WEB Address: www.autodesk.com
 90
      129
280
     0
281
     0
  0
CLASS
  1
AEC_DISPREPAECDBDISPREPOPENINGPLAN100
  2
AecDbDispRepOpeningPlan100
  3
AecArchDACHBase50|Product Desc: Autodesk Architectural Desktop 2007 |Company: Autodesk,Inc. |WEB Address: www.autodesk.com
 90
      129
280
     0
281
     0
  0
CLASS
  1
AEC_DISPROPSOPENINGPLANCOMMONHATCHED
  2
AecDbDispPropsOpeningPlanCommonHatched
  3
AecArchDACHBase50|Product Desc: Autodesk Architectural Desktop 2007 |Company: Autodesk,Inc. |WEB Address: www.autodesk.com
 90
      129
280
     0
281
     0
  0
CLASS
  1
AEC_DISPREPAECDBDISPREPOPENINGPLAN50
  2
AecDbDispRepOpeningPlan50
  3
AecArchDACHBase50|Product Desc: Autodesk Architectural Desktop 2007 |Company: Autodesk,Inc. |WEB Address: www.autodesk.com
 90
      129
280
     0
281
     0
  0
CLASS
  1
AEC_DISPREPAECDBDISPREPOPENINGPLANREFLECTED
  2
AecDbDispRepOpeningPlanReflected
  3
AecArchDACHBase50|Product Desc: Autodesk Architectural Desktop 2007 |Company: Autodesk,Inc. |WEB Address: www.autodesk.com
 90
      129
280
     0
281
     0
  0
CLASS
  1
AEC_DISPROPSOPENINGPLANCOMMON
  2
AecDbDispPropsOpeningPlanCommon
  3
AecArchDACHBase50|Product Desc: Autodesk Architectural Desktop 2007 |Company: Autodesk,Inc. |WEB Address: www.autodesk.com
 90
      129
280
     0
281
     0
  0
CLASS
  1
AEC_DISPREPAECDBDISPREPOPENINGSILLPLAN
  2
AecDbDispRepOpeningSillPlan
  3
AecArchDACHBase50|Product Desc: Autodesk Architectural Desktop 2007 |Company: Autodesk,Inc. |WEB Address: www.autodesk.com
 90
      129
280
     0
281
     0
  0
CLASS
  1
AEC_DISPROPSOPENINGSILLPLAN
  2
AecDbDispPropsOpeningSillPlan
  3
AecArchDACHBase50|Product Desc: Autodesk Architectural Desktop 2007 |Company: Autodesk,Inc. |WEB Address: www.autodesk.com
 90
      129
280
     0
281
     0
  0
CLASS
  1
AEC_DISP_REP_RAILING_PLAN_100
  2
AecDbDispRepRailingPlan100
  3
AecArchDACHBase50|Product Desc: Autodesk Architectural Desktop 2007 |Company: Autodesk,Inc. |WEB Address: www.autodesk.com
 90
      129
280
     0
281
     0
  0
CLASS
  1
AEC_DISP_ROPS_RAILING_PLAN_100
  2
AecDbDispPropsRailingPlan100
  3
AecArchDACHBase50|Product Desc: Autodesk Architectural Desktop 2007 |Company: Autodesk,Inc. |WEB Address: www.autodesk.com
 90
      129
280
     0
281
     0
  0
CLASS
  1
AEC_DISP_REP_RAILING_PLAN_50
  2
AecDbDispRepRailingPlan50
  3
AecArchDACHBase50|Product Desc: Autodesk Architectural Desktop 2007 |Company: Autodesk,Inc. |WEB Address: www.autodesk.com
 90
      129
280
     0
281
     0
  0
CLASS
  1
AEC_DISP_ROPS_RAILING_PLAN_50
  2
AecDbDispPropsRailingPlan50
  3
AecArchDACHBase50|Product Desc: Autodesk Architectural Desktop 2007 |Company: Autodesk,Inc. |WEB Address: www.autodesk.com
 90
      129
280
     0
281
     0
  0
CLASS
  1
AEC_DISP_REP_STAIR_PLAN_100
  2
AecDbDispRepStairPlan100
  3
AecArchDACHBase50|Product Desc: Autodesk Architectural Desktop 2007 |Company: Autodesk,Inc. |WEB Address: www.autodesk.com
 90
      129
280
     0
281
     0
  0
CLASS
  1
AEC_DISP_ROPS_STAIR_PLAN_100
  2
AecDbDispPropsStairPlan100
  3
AecArchDACHBase50|Product Desc: Autodesk Architectural Desktop 2007 |Company: Autodesk,Inc. |WEB Address: www.autodesk.com
 90
      129
280
     0
281
     0
  0
CLASS
  1
AEC_DISP_REP_STAIR_PLAN_50
  2
AecDbDispRepStairPlan50
  3
AecArchDACHBase50|Product Desc: Autodesk Architectural Desktop 2007 |Company: Autodesk,Inc. |WEB Address: www.autodesk.com
 90
      129
280
     0
281
     0
  0
CLASS
  1
AEC_DISP_ROPS_STAIR_PLAN_50
  2
AecDbDispPropsStairPlan50
  3
AecArchDACHBase50|Product Desc: Autodesk Architectural Desktop 2007 |Company: Autodesk,Inc. |WEB Address: www.autodesk.com
 90
      129
280
     0
281
     0
  0
CLASS
  1
AEC_DISP_REP_WINDOW_PLAN_100
  2
AecDbDispRepWindowPlan100
  3
AecArchDACHBase50|Product Desc: Autodesk Architectural Desktop 2007 |Company: Autodesk,Inc. |WEB Address: www.autodesk.com
 90
      129
280
     0
281
     0
  0
CLASS
  1
AEC_DISP_PROPS_WINDOW_PLAN_100
  2
AecDbDispPropsWindowPlan100
  3
AecArchDACHBase50|Product Desc: Autodesk Architectural Desktop 2007 |Company: Autodesk,Inc. |WEB Address: www.autodesk.com
 90
      129
280
     0
281
     0
  0
CLASS
  1
AEC_DISP_REP_WINDOW_PLAN_50
  2
AecDbDispRepWindowPlan50
  3
AecArchDACHBase50|Product Desc: Autodesk Architectural Desktop 2007 |Company: Autodesk,Inc. |WEB Address: www.autodesk.com
 90
      129
280
     0
281
     0
  0
CLASS
  1
AEC_DISP_PROPS_WINDOW_PLAN_50
  2
AecDbDispPropsWindowPlan50
  3
AecArchDACHBase50|Product Desc: Autodesk Architectural Desktop 2007 |Company: Autodesk,Inc. |WEB Address: www.autodesk.com
 90
      129
280
     0
281
     0
  0
CLASS
  1
AEC_DISP_REP_2D_SECTION
  2
AecDbDispRep2dSection
  3
AecBase50|Product Desc: Autodesk Architectural Desktop 2007 |Company: Autodesk,Inc. |WEB Address: www.autodesk.com
 90
      129
280
     0
281
     0
  0
CLASS
  1
AEC_DISP_PROPS_2D_SECTION
  2
AecDbDispProps2dSection
  3
AecBase50|Product Desc: Autodesk Architectural Desktop 2007 |Company: Autodesk,Inc. |WEB Address: www.autodesk.com
 90
      129
280
     0
281
     0
  0
CLASS
  1
AEC_DISP_REP_ANCHOR
  2
AecDbDispRepAnchor
  3
AecBase50|Product Desc: Autodesk Architectural Desktop 2007 |Company: Autodesk,Inc. |WEB Address: www.autodesk.com
 90
      129
280
     0
281
     0
  0
CLASS
  1
AEC_DISP_REP_ANCHOR_ENT_TO_NODE
  2
AecDbDispRepAnchorEntToNode
  3
AecBase50|Product Desc: Autodesk Architectural Desktop 2007 |Company: Autodesk,Inc. |WEB Address: www.autodesk.com
 90
      129
280
     0
281
     0
  0
CLASS
  1
AEC_DISP_REP_CLIP_VOLUME_MODEL
  2
AecDbDispRepClipVolModel
  3
AecBase50|Product Desc: Autodesk Architectural Desktop 2007 |Company: Autodesk,Inc. |WEB Address: www.autodesk.com
 90
      129
280
     0
281
     0
  0
CLASS
  1
AEC_DISP_REP_CLIP_VOLUME_PLAN
  2
AecDbDispRepClipVolPlan
  3
AecBase50|Product Desc: Autodesk Architectural Desktop 2007 |Company: Autodesk,Inc. |WEB Address: www.autodesk.com
 90
      129
280
     0
281
     0
  0
CLASS
  1
AEC_DISP_REP_CLIP_VOLUME_RESULT
  2
AecDbDispRepClipVolResult
  3
AecBase50|Product Desc: Autodesk Architectural Desktop 2007 |Company: Autodesk,Inc. |WEB Address: www.autodesk.com
 90
      129
280
     0
281
     0
  0
CLASS
  1
AEC_DISP_REP_CLIP_VOLUME_RESULT_SUBDIV
  2
AecDbDispRepClipVolResSubDiv
  3
AecBase50|Product Desc: Autodesk Architectural Desktop 2007 |Company: Autodesk,Inc. |WEB Address: www.autodesk.com
 90
      129
280
     0
281
     0
  0
CLASS
  1
AEC_DISP_PROPS_CLIP_VOLUME_RESULT
  2
AecDbDispPropsClipVolResSubDiv
  3
AecBase50|Product Desc: Autodesk Architectural Desktop 2007 |Company: Autodesk,Inc. |WEB Address: www.autodesk.com
 90
      129
280
     0
281
     0
  0
CLASS
  1
AEC_DISP_REP_DISPLAYTHEME
  2
AecDbDispRepDisplayTheme
  3
AecBase50|Product Desc: Autodesk Architectural Desktop 2007 |Company: Autodesk,Inc. |WEB Address: www.autodesk.com
 90
      129
280
     0
281
     0
  0
CLASS
  1
AEC_DISP_PROPS_DISPLAYTHEME
  2
AecDbDispPropsDisplayTheme
  3
AecBase50|Product Desc: Autodesk Architectural Desktop 2007 |Company: Autodesk,Inc. |WEB Address: www.autodesk.com
 90
      129
280
     0
281
     0
  0
CLASS
  1
AEC_DISP_REP_EDITINPLACEPROFILE
  2
AecDbDispRepEditInPlaceProfile
  3
AecBase50|Product Desc: Autodesk Architectural Desktop 2007 |Company: Autodesk,Inc. |WEB Address: www.autodesk.com
 90
      129
280
     0
281
     0
  0
CLASS
  1
AEC_DISP_PROPS_EDITINPLACEPROFILE_MODEL
  2
AecDbDispPropsEditInPlaceProfile
  3
AecBase50|Product Desc: Autodesk Architectural Desktop 2007 |Company: Autodesk,Inc. |WEB Address: www.autodesk.com
 90
      129
280
     0
281
     0
  0
CLASS
  1
AEC_DISP_REP_ENT_REF
  2
AecDbDispRepEntRef
  3
AecBase50|Product Desc: Autodesk Architectural Desktop 2007 |Company: Autodesk,Inc. |WEB Address: www.autodesk.com
 90
      129
280
     0
281
     0
  0
CLASS
  1
AEC_DISP_PROPS_ENT_REF
  2
AecDbDispPropsEntRef
  3
AecBase50|Product Desc: Autodesk Architectural Desktop 2007 |Company: Autodesk,Inc. |WEB Address: www.autodesk.com
 90
      129
280
     0
281
     0
  0
CLASS
  1
AEC_DISP_REP_LAYOUT_CURVE
  2
AecDbDispRepLayoutCurve
  3
AecBase50|Product Desc: Autodesk Architectural Desktop 2007 |Company: Autodesk,Inc. |WEB Address: www.autodesk.com
 90
      129
280
     0
281
     0
  0
CLASS
  1
AEC_DISP_PROPS_LAYOUT_CURVE
  2
AecDbDispPropsLayoutCurve
  3
AecBase50|Product Desc: Autodesk Architectural Desktop 2007 |Company: Autodesk,Inc. |WEB Address: www.autodesk.com
 90
      129
280
     0
281
     0
  0
CLASS
  1
AEC_DISP_REP_LAYOUT_GRID2D
  2
AecDbDispRepLayoutGrid2d
  3
AecBase50|Product Desc: Autodesk Architectural Desktop 2007 |Company: Autodesk,Inc. |WEB Address: www.autodesk.com
 90
      129
280
     0
281
     0
  0
CLASS
  1
AEC_DISP_REP_LAYOUT_GRID3D
  2
AecDbDispRepLayoutGrid3d
  3
AecBase50|Product Desc: Autodesk Architectural Desktop 2007 |Company: Autodesk,Inc. |WEB Address: www.autodesk.com
 90
      129
280
     0
281
     0
  0
CLASS
  1
AEC_DISP_PROPS_LAYOUT_GRID3D
  2
AecDbDispPropsLayoutGrid3d
  3
AecBase50|Product Desc: Autodesk Architectural Desktop 2007 |Company: Autodesk,Inc. |WEB Address: www.autodesk.com
 90
      129
280
     0
281
     0
  0
CLASS
  1
AEC_DISP_REP_MASKBLOCK_REF
  2
AecDbDispRepMaskBlockRef
  3
AecBase50|Product Desc: Autodesk Architectural Desktop 2007 |Company: Autodesk,Inc. |WEB Address: www.autodesk.com
 90
      129
280
     0
281
     0
  0
CLASS
  1
AEC_DISP_PROPS_MASKBLOCK
  2
AecDbDispPropsMaskBlock
  3
AecBase50|Product Desc: Autodesk Architectural Desktop 2007 |Company: Autodesk,Inc. |WEB Address: www.autodesk.com
 90
      129
280
     0
281
     0
  0
CLASS
  1
AEC_DISP_REP_MATERIAL
  2
AecDbDispRepMaterial
  3
AecBase50|Product Desc: Autodesk Architectural Desktop 2007 |Company: Autodesk,Inc. |WEB Address: www.autodesk.com
 90
      129
280
     0
281
     0
  0
CLASS
  1
AEC_DISP_PROPS_MATERIAL
  2
AecDbDispPropsMaterial
  3
AecBase50|Product Desc: Autodesk Architectural Desktop 2007 |Company: Autodesk,Inc. |WEB Address: www.autodesk.com
 90
      129
280
     0
281
     0
  0
CLASS
  1
AEC_DISP_REP_MVBLOCK_REF
  2
AecDbDispRepMvBlockRef
  3
AecBase50|Product Desc: Autodesk Architectural Desktop 2007 |Company: Autodesk,Inc. |WEB Address: www.autodesk.com
 90
      129
280
     0
281
     0
  0
CLASS
  1
AEC_DISP_REP_MVBLOCK_REF_MODEL
  2
AecDbDispRepMvBlockRefModel
  3
AecBase50|Product Desc: Autodesk Architectural Desktop 2007 |Company: Autodesk,Inc. |WEB Address: www.autodesk.com
 90
      129
280
     0
281
     0
  0
CLASS
  1
AEC_DISP_REP_POLYGON_MODEL
  2
AecDbDispRepPolygonModel
  3
AecBase50|Product Desc: Autodesk Architectural Desktop 2007 |Company: Autodesk,Inc. |WEB Address: www.autodesk.com
 90
      129
280
     0
281
     0
  0
CLASS
  1
AEC_DISP_PROPS_POLYGON_MODEL
  2
AecDbDispPropsPolygonModel
  3
AecBase50|Product Desc: Autodesk Architectural Desktop 2007 |Company: Autodesk,Inc. |WEB Address: www.autodesk.com
 90
      129
280
     0
281
     0
  0
CLASS
  1
AEC_DISP_REP_POLYGON_TRUECOLOUR
  2
AecDbDispRepPolygonTrueColour
  3
AecBase50|Product Desc: Autodesk Architectural Desktop 2007 |Company: Autodesk,Inc. |WEB Address: www.autodesk.com
 90
      129
280
     0
281
     0
  0
CLASS
  1
AEC_DISP_PROPS_POLYGON_TRUECOLOUR
  2
AecDbDispPropsPolygonTrueColour
  3
AecBase50|Product Desc: Autodesk Architectural Desktop 2007 |Company: Autodesk,Inc. |WEB Address: www.autodesk.com
 90
      129
280
     0
281
     0
  0
CLASS
  1
AEC_DISP_REP_SLICE
  2
AecDbDispRepSlice
  3
AecBase50|Product Desc: Autodesk Architectural Desktop 2007 |Company: Autodesk,Inc. |WEB Address: www.autodesk.com
 90
      129
280
     0
281
     0
  0
CLASS
  1
AEC_DISP_PROPS_SLICE
  2
AecDbDispPropsSlice
  3
AecBase50|Product Desc: Autodesk Architectural Desktop 2007 |Company: Autodesk,Inc. |WEB Address: www.autodesk.com
 90
      129
280
     0
281
     0
  0
CLASS
  1
AEC_DISP_REP_MASS_ELEM_MODEL
  2
AecDbDispRepMassElemModel
  3
AecBaseEx50|Product Desc: Autodesk Architectural Desktop 2007 |Company: Autodesk,Inc. |WEB Address: www.autodesk.com
 90
      129
280
     0
281
     0
  0
CLASS
  1
AEC_DISP_PROPS_MASS_ELEM_MODEL
  2
AecDbDispPropsMassElem
  3
AecBaseEx50|Product Desc: Autodesk Architectural Desktop 2007 |Company: Autodesk,Inc. |WEB Address: www.autodesk.com
 90
      129
280
     0
281
     0
  0
CLASS
  1
AEC_DISP_REP_MASS_ELEM_SCHEM
  2
AecDbDispRepMassElemSchem
  3
AecBaseEx50|Product Desc: Autodesk Architectural Desktop 2007 |Company: Autodesk,Inc. |WEB Address: www.autodesk.com
 90
      129
280
     0
281
     0
  0
CLASS
  1
AEC_DISP_REP_MASS_GROUP_MODEL
  2
AecDbDispRepMassGroupModel
  3
AecBaseEx50|Product Desc: Autodesk Architectural Desktop 2007 |Company: Autodesk,Inc. |WEB Address: www.autodesk.com
 90
      129
280
     0
281
     0
  0
CLASS
  1
AEC_DISP_PROPS_MASS_GROUP
  2
AecDbDispPropsMassGroup
  3
AecBaseEx50|Product Desc: Autodesk Architectural Desktop 2007 |Company: Autodesk,Inc. |WEB Address: www.autodesk.com
 90
      129
280
     0
281
     0
  0
CLASS
  1
AEC_DISP_REP_MASS_GROUP_PLAN
  2
AecDbDispRepMassGroupPlan
  3
AecBaseEx50|Product Desc: Autodesk Architectural Desktop 2007 |Company: Autodesk,Inc. |WEB Address: www.autodesk.com
 90
      129
280
     0
281
     0
  0
CLASS
  1
AEC_DISP_REP_ANCHOR_TAG_TO_ENT
  2
AecDbDispRepAnchorTagToEnt
  3
AecScheduleData50|Product Desc: Autodesk Architectural Desktop 2007 |Company: Autodesk,Inc. |WEB Address: www.autodesk.com
 90
      129
280
     0
281
     0
  0
CLASS
  1
AEC_DISP_REP_ANCHOR_EXT_TAG_TO_ENT
  2
AecDbDispRepAnchorExtendedTagToEnt
  3
AecScheduleData50|Product Desc: Autodesk Architectural Desktop 2007 |Company: Autodesk,Inc. |WEB Address: www.autodesk.com
 90
      129
280
     0
281
     0
  0
CLASS
  1
AEC_DISP_REP_SCHEDULE_TABLE
  2
AecDbDispRepScheduleTable
  3
AecSchedule50|Product Desc: Autodesk Architectural Desktop 2007 |Company: Autodesk,Inc. |WEB Address: www.autodesk.com
 90
      129
280
     0
281
     0
  0
CLASS
  1
AEC_DISP_PROPS_SCHEDULE_TABLE
  2
AecDbDispPropsScheduleTable
  3
AecSchedule50|Product Desc: Autodesk Architectural Desktop 2007 |Company: Autodesk,Inc. |WEB Address: www.autodesk.com
 90
      129
280
     0
281
     0
  0
CLASS
  1
AEC_DISP_REP_BDG_ELEVLINE_MODEL
  2
AecDbDispRepBdgElevLineModel
  3
AecArchBase50|Product Desc: Autodesk Architectural Desktop 2007 |Company: Autodesk,Inc. |WEB Address: www.autodesk.com
 90
      129
280
     0
281
     0
  0
CLASS
  1
AEC_DISP_REP_BDG_SECTIONLINE_PLAN
  2
AecDbDispRepBdgElevLinePlan
  3
AecArchBase50|Product Desc: Autodesk Architectural Desktop 2007 |Company: Autodesk,Inc. |WEB Address: www.autodesk.com
 90
      129
280
     0
281
     0
  0
CLASS
  1
AEC_DISP_REP_BDG_ELEVLINE_RCP
  2
AecDbDispRepBdgElevLineRcp
  3
AecArchBase50|Product Desc: Autodesk Architectural Desktop 2007 |Company: Autodesk,Inc. |WEB Address: www.autodesk.com
 90
      129
280
     0
281
     0
  0
CLASS
  1
AEC_DISP_REP_BDG_SECTIONLINE_MODEL
  2
AecDbDispRepBdgSectionLineModel
  3
AecArchBase50|Product Desc: Autodesk Architectural Desktop 2007 |Company: Autodesk,Inc. |WEB Address: www.autodesk.com
 90
      129
280
     0
281
     0
  0
CLASS
  1
AEC_DISP_REP_BDG_SECTIONLINE_PLAN
  2
AecDbDispRepBdgSectionLinePlan
  3
AecArchBase50|Product Desc: Autodesk Architectural Desktop 2007 |Company: Autodesk,Inc. |WEB Address: www.autodesk.com
 90
      129
280
     0
281
     0
  0
CLASS
  1
AEC_DISP_REP_BDG_SECTIONLINE_RCP
  2
AecDbDispRepBdgSectionLineRcp
  3
AecArchBase50|Product Desc: Autodesk Architectural Desktop 2007 |Company: Autodesk,Inc. |WEB Address: www.autodesk.com
 90
      129
280
     0
281
     0
  0
CLASS
  1
AEC_DISP_REP_BDG_SECTION_MODEL
  2
AecDbDispRepBdgSectionModel
  3
AecArchBase50|Product Desc: Autodesk Architectural Desktop 2007 |Company: Autodesk,Inc. |WEB Address: www.autodesk.com
 90
      129
280
     0
281
     0
  0
CLASS
  1
AEC_DISP_REP_BDG_SECTION_SUBDIV
  2
AecDbDispRepBdgSectionSubDiv
  3
AecArchBase50|Product Desc: Autodesk Architectural Desktop 2007 |Company: Autodesk,Inc. |WEB Address: www.autodesk.com
 90
      129
280
     0
281
     0
  0
CLASS
  1
AEC_DISP_REP_CEILING_GRID
  2
AecDbDispRepCeilingGrid
  3
AecArchBase50|Product Desc: Autodesk Architectural Desktop 2007 |Company: Autodesk,Inc. |WEB Address: www.autodesk.com
 90
      893
280
     0
281
     0
  0
CLASS
  1
AEC_DISP_REP_CEILING_GRID_MODEL
  2
AecDbDispRepCeilingGridModel
  3
AecArchBase50|Product Desc: Autodesk Architectural Desktop 2007 |Company: Autodesk,Inc. |WEB Address: www.autodesk.com
 90
      129
280
     0
281
     0
  0
CLASS
  1
AEC_DISP_REP_CEILING_GRID_RCP
  2
AecDbDispRepCeilingGridRcp
  3
AecArchBase50|Product Desc: Autodesk Architectural Desktop 2007 |Company: Autodesk,Inc. |WEB Address: www.autodesk.com
 90
      129
280
     0
281
     0
  0
CLASS
  1
AEC_DISP_REP_CURTAIN_WALL_LAYOUT_MODEL
  2
AecDbDispRepCurtainWallLayoutModel
  3
AecArchBase50|Product Desc: Autodesk Architectural Desktop 2007 |Company: Autodesk,Inc. |WEB Address: www.autodesk.com
 90
      129
280
     0
281
     0
  0
CLASS
  1
AEC_DISP_PROPS_GRID_ASSEMBLY_MODEL
  2
AecDbDispPropsGridAssemblyModel
  3
AecArchBase50|Product Desc: Autodesk Architectural Desktop 2007 |Company: Autodesk,Inc. |WEB Address: www.autodesk.com
 90
      129
280
     0
281
     0
  0
CLASS
  1
AEC_DISP_REP_CURTAIN_WALL_LAYOUT_PLAN
  2
AecDbDispRepCurtainWallLayoutPlan
  3
AecArchBase50|Product Desc: Autodesk Architectural Desktop 2007 |Company: Autodesk,Inc. |WEB Address: www.autodesk.com
 90
      129
280
     0
281
     0
  0
CLASS
  1
AEC_DISP_REP_CURTAIN_WALL_UNIT_MODEL
  2
AecDbDispRepCurtainWallUnitModel
  3
AecArchBase50|Product Desc: Autodesk Architectural Desktop 2007 |Company: Autodesk,Inc. |WEB Address: www.autodesk.com
 90
      129
280
     0
281
     0
  0
CLASS
  1
AEC_DISP_REP_CURTAIN_WALL_UNIT_PLAN
  2
AecDbDispRepCurtainWallUnitPlan
  3
AecArchBase50|Product Desc: Autodesk Architectural Desktop 2007 |Company: Autodesk,Inc. |WEB Address: www.autodesk.com
 90
      129
280
     0
281
     0
  0
CLASS
  1
AEC_DISP_REP_DOOR_MODEL
  2
AecDbDispRepDoorModel
  3
AecArchBase50|Product Desc: Autodesk Architectural Desktop 2007 |Company: Autodesk,Inc. |WEB Address: www.autodesk.com
 90
      129
280
     0
281
     0
  0
CLASS
  1
AEC_DISP_PROPS_DOOR
  2
AecDbDispPropsDoor
  3
AecArchBase50|Product Desc: Autodesk Architectural Desktop 2007 |Company: Autodesk,Inc. |WEB Address: www.autodesk.com
 90
      129
280
     0
281
     0
  0
CLASS
  1
AEC_DISP_REP_DOOR_ELEV
  2
AecDbDispRepDoorElev
  3
AecArchBase50|Product Desc: Autodesk Architectural Desktop 2007 |Company: Autodesk,Inc. |WEB Address: www.autodesk.com
 90
      129
280
     0
281
     0
  0
CLASS
  1
AEC_DISP_REP_DOOR_PLAN
  2
AecDbDispRepDoorPlan
  3
AecArchBase50|Product Desc: Autodesk Architectural Desktop 2007 |Company: Autodesk,Inc. |WEB Address: www.autodesk.com
 90
      129
280
     0
281
     0
  0
CLASS
  1
AEC_DISP_REP_DOOR_NOMINAL
  2
AecDbDispRepDoorNominal
  3
AecArchBase50|Product Desc: Autodesk Architectural Desktop 2007 |Company: Autodesk,Inc. |WEB Address: www.autodesk.com
 90
      129
280
     0
281
     0
  0
CLASS
  1
AEC_DISP_PROPS_DOOR_NOMINAL
  2
AecDbDispPropsDoorNominal
  3
AecArchBase50|Product Desc: Autodesk Architectural Desktop 2007 |Company: Autodesk,Inc. |WEB Address: www.autodesk.com
 90
      129
280
     0
281
     0
  0
CLASS
  1
AEC_DISP_REP_DOOR_RCP
  2
AecDbDispRepDoorRcp
  3
AecArchBase50|Product Desc: Autodesk Architectural Desktop 2007 |Company: Autodesk,Inc. |WEB Address: www.autodesk.com
 90
      129
280
     0
281
     0
  0
CLASS
  1
AEC_DISP_REP_DOOR_THRESHOLD_PLAN
  2
AecDbDispRepDoorThresholdPlan
  3
AecArchBase50|Product Desc: Autodesk Architectural Desktop 2007 |Company: Autodesk,Inc. |WEB Address: www.autodesk.com
 90
      129
280
     0
281
     0
  0
CLASS
  1
AEC_DISP_PROPS_DOOR_THRESHOLD_PLAN
  2
AecDbDispPropsDoorThresholdPlan
  3
AecArchBase50|Product Desc: Autodesk Architectural Desktop 2007 |Company: Autodesk,Inc. |WEB Address: www.autodesk.com
 90
      129
280
     0
281
     0
  0
CLASS
  1
AEC_DISP_REP_MASKBLOCK_REF_RCP
  2
AecDbDispRepMaskBlockRefRcp
  3
AecArchBase50|Product Desc: Autodesk Architectural Desktop 2007 |Company: Autodesk,Inc. |WEB Address: www.autodesk.com
 90
      129
280
     0
281
     0
  0
CLASS
  1
AEC_DISP_REP_MASS_ELEM_RCP
  2
AecDbDispRepMassElemRcp
  3
AecArchBase50|Product Desc: Autodesk Architectural Desktop 2007 |Company: Autodesk,Inc. |WEB Address: www.autodesk.com
 90
      129
280
     0
281
     0
  0
CLASS
  1
AEC_DISP_REP_MASS_GROUP_RCP
  2
AecDbDispRepMassGroupRcp
  3
AecArchBase50|Product Desc: Autodesk Architectural Desktop 2007 |Company: Autodesk,Inc. |WEB Address: www.autodesk.com
 90
      129
280
     0
281
     0
  0
CLASS
  1
AEC_DISP_REP_MVBLOCK_REF_RCP
  2
AecDbDispRepMvBlockRefRcp
  3
AecArchBase50|Product Desc: Autodesk Architectural Desktop 2007 |Company: Autodesk,Inc. |WEB Address: www.autodesk.com
 90
      129
280
     0
281
     0
  0
CLASS
  1
AEC_DISP_REP_OPENING
  2
AecDbDispRepOpening
  3
AecArchBase50|Product Desc: Autodesk Architectural Desktop 2007 |Company: Autodesk,Inc. |WEB Address: www.autodesk.com
 90
      129
280
     0
281
     0
  0
CLASS
  1
AEC_DISP_PROPS_OPENING
  2
AecDbDispPropsOpening
  3
AecArchBase50|Product Desc: Autodesk Architectural Desktop 2007 |Company: Autodesk,Inc. |WEB Address: www.autodesk.com
 90
      129
280
     0
281
     0
  0
CLASS
  1
AEC_DISP_REP_OPENING_MODEL
  2
AecDbDispRepOpeningModel
  3
AecArchBase50|Product Desc: Autodesk Architectural Desktop 2007 |Company: Autodesk,Inc. |WEB Address: www.autodesk.com
 90
      129
280
     0
281
     0
  0
CLASS
  1
AEC_DISP_REP_RAILING_MODEL
  2
AecDbDispRepRailingModel
  3
AecArchBase50|Product Desc: Autodesk Architectural Desktop 2007 |Company: Autodesk,Inc. |WEB Address: www.autodesk.com
 90
      129
280
     0
281
     0
  0
CLASS
  1
AEC_DISP_PROPS_RAILING_MODEL
  2
AecDbDispPropsRailingModel
  3
AecArchBase50|Product Desc: Autodesk Architectural Desktop 2007 |Company: Autodesk,Inc. |WEB Address: www.autodesk.com
 90
      129
280
     0
281
     0
  0
CLASS
  1
AEC_DISP_REP_RAILING_PLAN
  2
AecDbDispRepRailingPlan
  3
AecArchBase50|Product Desc: Autodesk Architectural Desktop 2007 |Company: Autodesk,Inc. |WEB Address: www.autodesk.com
 90
      129
280
     0
281
     0
  0
CLASS
  1
AEC_DISP_PROPS_RAILING_PLAN
  2
AecDbDispPropsRailingPlan
  3
AecArchBase50|Product Desc: Autodesk Architectural Desktop 2007 |Company: Autodesk,Inc. |WEB Address: www.autodesk.com
 90
      129
280
     0
281
     0
  0
CLASS
  1
AEC_DISP_REP_ROOF_MODEL
  2
AecDbDispRepRoofModel
  3
AecArchBase50|Product Desc: Autodesk Architectural Desktop 2007 |Company: Autodesk,Inc. |WEB Address: www.autodesk.com
 90
      129
280
     0
281
     0
  0
CLASS
  1
AEC_DISP_REP_ROOF_PLAN
  2
AecDbDispRepRoofPlan
  3
AecArchBase50|Product Desc: Autodesk Architectural Desktop 2007 |Company: Autodesk,Inc. |WEB Address: www.autodesk.com
 90
      129
280
     0
281
     0
  0
CLASS
  1
AEC_DISP_REP_ROOF_RCP
  2
AecDbDispRepRoofRcp
  3
AecArchBase50|Product Desc: Autodesk Architectural Desktop 2007 |Company: Autodesk,Inc. |WEB Address: www.autodesk.com
 90
      129
280
     0
281
     0
  0
CLASS
  1
AEC_DISP_REP_SLAB_MODEL
  2
AecDbDispRepSlabModel
  3
AecArchBase50|Product Desc: Autodesk Architectural Desktop 2007 |Company: Autodesk,Inc. |WEB Address: www.autodesk.com
 90
      129
280
     0
281
     0
  0
CLASS
  1
AEC_DISP_PROPS_SLAB
  2
AecDbDispPropsSlab
  3
AecArchBase50|Product Desc: Autodesk Architectural Desktop 2007 |Company: Autodesk,Inc. |WEB Address: www.autodesk.com
 90
      129
280
     0
281
     0
  0
CLASS
  1
AEC_DISP_REP_ROOFSLAB_MODEL
  2
AecDbDispRepRoofSlabModel
  3
AecArchBase50|Product Desc: Autodesk Architectural Desktop 2007 |Company: Autodesk,Inc. |WEB Address: www.autodesk.com
 90
      129
280
     0
281
     0
  0
CLASS
  1
AEC_DISP_PROPS_ROOFSLAB
  2
AecDbDispPropsRoofSlab
  3
AecArchBase50|Product Desc: Autodesk Architectural Desktop 2007 |Company: Autodesk,Inc. |WEB Address: www.autodesk.com
 90
      129
280
     0
281
     0
  0
CLASS
  1
AEC_DISP_REP_SLAB_PLAN
  2
AecDbDispRepSlabPlan
  3
AecArchBase50|Product Desc: Autodesk Architectural Desktop 2007 |Company: Autodesk,Inc. |WEB Address: www.autodesk.com
 90
      129
280
     0
281
     0
  0
CLASS
  1
AEC_DISP_REP_ROOFSLAB_PLAN
  2
AecDbDispRepRoofSlabPlan
  3
AecArchBase50|Product Desc: Autodesk Architectural Desktop 2007 |Company: Autodesk,Inc. |WEB Address: www.autodesk.com
 90
      129
280
     0
281
     0
  0
CLASS
  1
AEC_DISP_REP_SPACE_DECOMPOSED
  2
AecDbDispRepSpaceDecomposed
  3
AecArchBase50|Product Desc: Autodesk Architectural Desktop 2007 |Company: Autodesk,Inc. |WEB Address: www.autodesk.com
 90
      129
280
     0
281
     0
  0
CLASS
  1
AEC_DISP_PROPS_SPACE_DECOMPOSED
  2
AecDbDispPropsSpaceDecomposed
  3
AecArchBase50|Product Desc: Autodesk Architectural Desktop 2007 |Company: Autodesk,Inc. |WEB Address: www.autodesk.com
 90
      129
280
     0
281
     0
  0
CLASS
  1
AEC_DISP_REP_SPACE_MODEL
  2
AecDbDispRepSpaceModel
  3
AecArchBase50|Product Desc: Autodesk Architectural Desktop 2007 |Company: Autodesk,Inc. |WEB Address: www.autodesk.com
 90
      129
280
     0
281
     0
  0
CLASS
  1
AEC_DISP_PROPS_SPACE_MODEL
  2
AecDbDispPropsSpaceModel
  3
AecArchBase50|Product Desc: Autodesk Architectural Desktop 2007 |Company: Autodesk,Inc. |WEB Address: www.autodesk.com
 90
      129
280
     0
281
     0
  0
CLASS
  1
AEC_DISP_REP_SPACE_PLAN
  2
AecDbDispRepSpacePlan
  3
AecArchBase50|Product Desc: Autodesk Architectural Desktop 2007 |Company: Autodesk,Inc. |WEB Address: www.autodesk.com
 90
      129
280
     0
281
     0
  0
CLASS
  1
AEC_DISP_REP_SPACE_RCP
  2
AecDbDispRepSpaceRcp
  3
AecArchBase50|Product Desc: Autodesk Architectural Desktop 2007 |Company: Autodesk,Inc. |WEB Address: www.autodesk.com
 90
      129
280
     0
281
     0
  0
CLASS
  1
AEC_DISP_REP_SPACE_VOLUME
  2
AecDbDispRepSpaceVolume
  3
AecArchBase50|Product Desc: Autodesk Architectural Desktop 2007 |Company: Autodesk,Inc. |WEB Address: www.autodesk.com
 90
      129
280
     0
281
     0
  0
CLASS
  1
AEC_DISP_REP_STAIR_MODEL
  2
AecDbDispRepStairModel
  3
AecArchBase50|Product Desc: Autodesk Architectural Desktop 2007 |Company: Autodesk,Inc. |WEB Address: www.autodesk.com
 90
      129
280
     0
281
     0
  0
CLASS
  1
AEC_DISP_PROPS_STAIR_MODEL
  2
AecDbDispPropsStairModel
  3
AecArchBase50|Product Desc: Autodesk Architectural Desktop 2007 |Company: Autodesk,Inc. |WEB Address: www.autodesk.com
 90
      129
280
     0
281
     0
  0
CLASS
  1
AEC_DISP_REP_STAIR_PLAN
  2
AecDbDispRepStairPlan
  3
AecArchBase50|Product Desc: Autodesk Architectural Desktop 2007 |Company: Autodesk,Inc. |WEB Address: www.autodesk.com
 90
      129
280
     0
281
     0
  0
CLASS
  1
AEC_DISP_PROPS_STAIR_PLAN
  2
AecDbDispPropsStairPlan
  3
AecArchBase50|Product Desc: Autodesk Architectural Desktop 2007 |Company: Autodesk,Inc. |WEB Address: www.autodesk.com
 90
      129
280
     0
281
     0
  0
CLASS
  1
AEC_DISP_REP_STAIR_PLAN_OVERLAPPING
  2
AecDbDispRepStairPlanOverlapping
  3
AecArchBase50|Product Desc: Autodesk Architectural Desktop 2007 |Company: Autodesk,Inc. |WEB Address: www.autodesk.com
 90
      129
280
     0
281
     0
  0
CLASS
  1
AEC_DISP_PROPS_STAIR_PLAN_OVERLAPPING
  2
AecDbDispPropsStairPlanOverlapping
  3
AecArchBase50|Product Desc: Autodesk Architectural Desktop 2007 |Company: Autodesk,Inc. |WEB Address: www.autodesk.com
 90
      129
280
     0
281
     0
  0
CLASS
  1
AEC_DISP_REP_STAIR_RCP
  2
AecDbDispRepStairRcp
  3
AecArchBase50|Product Desc: Autodesk Architectural Desktop 2007 |Company: Autodesk,Inc. |WEB Address: www.autodesk.com
 90
      129
280
     0
281
     0
  0
CLASS
  1
AEC_DISP_REP_WALL_GRAPH
  2
AecDbDispRepWallGraph
  3
AecArchBase50|Product Desc: Autodesk Architectural Desktop 2007 |Company: Autodesk,Inc. |WEB Address: www.autodesk.com
 90
      129
280
     0
281
     0
  0
CLASS
  1
AEC_DISP_PROPS_WALL_GRAPH
  2
AecDbDispPropsWallGraph
  3
AecArchBase50|Product Desc: Autodesk Architectural Desktop 2007 |Company: Autodesk,Inc. |WEB Address: www.autodesk.com
 90
      129
280
     0
281
     0
  0
CLASS
  1
AEC_DISP_REP_WALL_MODEL
  2
AecDbDispRepWallModel
  3
AecArchBase50|Product Desc: Autodesk Architectural Desktop 2007 |Company: Autodesk,Inc. |WEB Address: www.autodesk.com
 90
      129
280
     0
281
     0
  0
CLASS
  1
AEC_DISP_PROPS_WALL_MODEL
  2
AecDbDispPropsWallModel
  3
AecArchBase50|Product Desc: Autodesk Architectural Desktop 2007 |Company: Autodesk,Inc. |WEB Address: www.autodesk.com
 90
      129
280
     0
281
     0
  0
CLASS
  1
AEC_DISP_REP_WALL_PLAN
  2
AecDbDispRepWallPlan
  3
AecArchBase50|Product Desc: Autodesk Architectural Desktop 2007 |Company: Autodesk,Inc. |WEB Address: www.autodesk.com
 90
      129
280
     0
281
     0
  0
CLASS
  1
AEC_DISP_REP_WALL_RCP
  2
AecDbDispRepWallRcp
  3
AecArchBase50|Product Desc: Autodesk Architectural Desktop 2007 |Company: Autodesk,Inc. |WEB Address: www.autodesk.com
 90
      129
280
     0
281
     0
  0
CLASS
  1
AEC_DISP_REP_WALL_SCHEM
  2
AecDbDispRepWallSchem
  3
AecArchBase50|Product Desc: Autodesk Architectural Desktop 2007 |Company: Autodesk,Inc. |WEB Address: www.autodesk.com
 90
      129
280
     0
281
     0
  0
CLASS
  1
AEC_DISP_PROPS_WALL_SCHEM
  2
AecDbDispPropsWallSchem
  3
AecArchBase50|Product Desc: Autodesk Architectural Desktop 2007 |Company: Autodesk,Inc. |WEB Address: www.autodesk.com
 90
      129
280
     0
281
     0
  0
CLASS
  1
AEC_DISP_REP_WINDOW_ASSEMBLY_MODEL
  2
AecDbDispRepWindowAssemblyModel
  3
AecArchBase50|Product Desc: Autodesk Architectural Desktop 2007 |Company: Autodesk,Inc. |WEB Address: www.autodesk.com
 90
      129
280
     0
281
     0
  0
CLASS
  1
AEC_DISP_REP_WINDOW_ASSEMBLY_PLAN
  2
AecDbDispRepWindowAssemblyPlan
  3
AecArchBase50|Product Desc: Autodesk Architectural Desktop 2007 |Company: Autodesk,Inc. |WEB Address: www.autodesk.com
 90
      129
280
     0
281
     0
  0
CLASS
  1
AEC_DISP_REP_WINDOWASSEMBLY_SILL_PLAN
  2
AecDbDispRepWindowAssemblySillPlan
  3
AecArchBase50|Product Desc: Autodesk Architectural Desktop 2007 |Company: Autodesk,Inc. |WEB Address: www.autodesk.com
 90
      129
280
     0
281
     0
  0
CLASS
  1
AEC_DISP_PROPS_WINDOW_ASSEMBLY_SILL_PLAN
  2
AecDbDispPropsWindowAssemblySillPlan
  3
AecArchBase50|Product Desc: Autodesk Architectural Desktop 2007 |Company: Autodesk,Inc. |WEB Address: www.autodesk.com
 90
      129
280
     0
281
     0
  0
CLASS
  1
AEC_DISP_REP_WINDOW_MODEL
  2
AecDbDispRepWindowModel
  3
AecArchBase50|Product Desc: Autodesk Architectural Desktop 2007 |Company: Autodesk,Inc. |WEB Address: www.autodesk.com
 90
      129
280
     0
281
     0
  0
CLASS
  1
AEC_DISP_PROPS_WINDOW
  2
AecDbDispPropsWindow
  3
AecArchBase50|Product Desc: Autodesk Architectural Desktop 2007 |Company: Autodesk,Inc. |WEB Address: www.autodesk.com
 90
      129
280
     0
281
     0
  0
CLASS
  1
AEC_DISP_REP_WINDOW_ELEV
  2
AecDbDispRepWindowElev
  3
AecArchBase50|Product Desc: Autodesk Architectural Desktop 2007 |Company: Autodesk,Inc. |WEB Address: www.autodesk.com
 90
      129
280
     0
281
     0
  0
CLASS
  1
AEC_DISP_REP_WINDOW_PLAN
  2
AecDbDispRepWindowPlan
  3
AecArchBase50|Product Desc: Autodesk Architectural Desktop 2007 |Company: Autodesk,Inc. |WEB Address: www.autodesk.com
 90
      129
280
     0
281
     0
  0
CLASS
  1
AEC_DISP_REP_WINDOW_NOMINAL
  2
AecDbDispRepWindowNominal
  3
AecArchBase50|Product Desc: Autodesk Architectural Desktop 2007 |Company: Autodesk,Inc. |WEB Address: www.autodesk.com
 90
      129
280
     0
281
     0
  0
CLASS
  1
AEC_DISP_PROPS_WINDOW_NOMINAL
  2
AecDbDispPropsWindowNominal
  3
AecArchBase50|Product Desc: Autodesk Architectural Desktop 2007 |Company: Autodesk,Inc. |WEB Address: www.autodesk.com
 90
      129
280
     0
281
     0
  0
CLASS
  1
AEC_DISP_REP_WINDOW_RCP
  2
AecDbDispRepWindowRcp
  3
AecArchBase50|Product Desc: Autodesk Architectural Desktop 2007 |Company: Autodesk,Inc. |WEB Address: www.autodesk.com
 90
      129
280
     0
281
     0
  0
CLASS
  1
AEC_DISP_REP_WINDOW_SILL_PLAN
  2
AecDbDispRepWindowSillPlan
  3
AecArchBase50|Product Desc: Autodesk Architectural Desktop 2007 |Company: Autodesk,Inc. |WEB Address: www.autodesk.com
 90
      129
280
     0
281
     0
  0
CLASS
  1
AEC_DISP_PROPS_WINDOW_SILL_PLAN
  2
AecDbDispPropsWindowSillPlan
  3
AecArchBase50|Product Desc: Autodesk Architectural Desktop 2007 |Company: Autodesk,Inc. |WEB Address: www.autodesk.com
 90
      129
280
     0
281
     0
  0
CLASS
  1
AEC_DISP_REP_ZONE
  2
AecDbDispRepZone
  3
AecArchBase50|Product Desc: Autodesk Architectural Desktop 2007 |Company: Autodesk,Inc. |WEB Address: www.autodesk.com
 90
      129
280
     0
281
     0
  0
CLASS
  1
AEC_DISP_REP_SET
  2
AecDbDispRepSet
  3
AecBase50|Product Desc: Autodesk Architectural Desktop 2007 |Company: Autodesk,Inc. |WEB Address: www.autodesk.com
 90
      129
280
     0
281
     0
  0
CLASS
  1
AEC_DISP_REP_CONFIG
  2
AecDbDispRepConfig
  3
AecBase50|Product Desc: Autodesk Architectural Desktop 2007 |Company: Autodesk,Inc. |WEB Address: www.autodesk.com
 90
      129
280
     0
281
     0
  0
CLASS
  1
AEC_LAYERKEY_STYLE
  2
AecDbLayerKeyStyle
  3
AecBase50|Product Desc: Autodesk Architectural Desktop 2007 |Company: Autodesk,Inc. |WEB Address: www.autodesk.com
 90
      129
280
     0
281
     0
  0
CLASS
  1
AEC_VARS_ARCHBASE
  2
AecDbVarsArchBase
  3
AecArchBase50|Product Desc: Autodesk Architectural Desktop 2007 |Company: Autodesk,Inc. |WEB Address: www.autodesk.com
 90
      129
280
     0
281
     0
  0
CLASS
  1
AEC_VARS_MUNICH
  2
AecDbVarsMunich
  3
AecArchDACHBase50|Product Desc: Autodesk Architectural Desktop 2007 |Company: Autodesk,Inc. |WEB Address: www.autodesk.com
 90
      129
280
     0
281
     0
  0
CLASS
  1
BINRECORD
  2
AcAecBinRecord
  3
AecBase50|Product Desc: Autodesk Architectural Desktop 2007 |Company: Autodesk,Inc. |WEB Address: www.autodesk.com
 90
      129
280
     0
281
     0
  0
CLASS
  1
CELLSTYLEMAP
  2
AcDbCellStyleMap
  3
ObjectDBX Classes
 90
     1152
280
     1
281
     0
  0
CLASS
  1
SORTENTSTABLE
  2
AcDbSortentsTable
  3
ObjectDBX Classes
 90
        0
280
     0
281
     0
  0
CLASS
  1
SOLID_BACKGROUND
  2
AcDbSolidBackground
  3
SCENEOE
 90
    36863
280
     0
281
     0
  0
CLASS
  1
ACSH_EXTRUSION_CLASS
  2
AcDbShExtrusion
  3
ObjectDBX Classes
 90
    33921
280
     0
281
     0
  0
CLASS
  1
ACAD_EVALUATION_GRAPH
  2
AcDbEvalGraph
  3
ObjectDBX Classes
 90
     1153
280
     0
281
     0
  0
CLASS
  1
ACSH_HISTORY_CLASS
  2
AcDbShHistory
  3
ObjectDBX Classes
 90
    33921
280
     0
281
     0
  0
CLASS
  1
EXTRUDEDSURFACE
  2
AcDbExtrudedSurface
  3
ObjectDBX Classes
 90
    36861
280
     0
281
     1
  0
CLASS
  1
ACDBPERSSUBENTMANAGER
  2
AcDbPersSubentManager
  3
AcDbPersSubentManager
 90
     1024
280
     0
281
     0
  0
CLASS
  1
ACSH_BOOLEAN_CLASS
  2
AcDbShBoolean
  3
ObjectDBX Classes
 90
    33921
280
     0
281
     0
  0
CLASS
  1
ACAECUSTOBJ
  2
AcAeEditorObj
  3
AcAeEditorObj
 90
     1024
280
     0
281
     0
  0
CLASS
  1
ACDB_DYNAMICBLOCKPURGEPREVENTER_VERSION
  2
AcDbDynamicBlockPurgePreventer
  3
ObjectDBX Classes
 90
     1153
280
     0
281
     0
  0
CLASS
  1
ACSH_BOX_CLASS
  2
AcDbShBox
  3
ObjectDBX Classes
 90
    33921
280
     0
281
     0
  0
CLASS
  1
SUN
  2
AcDbSun
  3
SCENEOE
 90
     1024
280
     0
281
     0
  0
CLASS
  1
ACDB_BLOCKREPRESENTATION_DATA
  2
AcDbBlockRepresentationData
  3
ObjectDBX Classes
 90
    33921
280
     0
281
     0
  0
CLASS
  1
SURFACE
  2
AcDbSurface
  3
ObjectDBX Classes
 90
    36863
280
     0
281
     1
  0
CLASS
  1
ACSH_CYLINDER_CLASS
  2
AcDbShCylinder
  3
ObjectDBX Classes
 90
    33921
280
     0
281
     0
  0
ENDSEC
  0
SECTION
  2
TABLES
  0
TABLE
  2
VPORT
  5
8
102
{ACAD_XDICTIONARY
360
56B
102
}
330
0
100
AcDbSymbolTable
 70
     1
  0
VPORT
  5
94
330
8
100
AcDbSymbolTableRecord
100
AcDbViewportTableRecord
  2
*Active
 70
     0
 10
0.0
 20
0.0
 11
1.0
 21
1.0
 12
109.1901106371009
 22
119.5168663985984
 13
0.0
 23
0.0
 14
0.5
 24
0.5
 15
0.5
 25
0.5
 16
0.0
 26
0.0
 36
1.0
 17
0.8098893197230152
 27
0.4831336246287269
 37
-0.0492661864433649
 40
241.8848167539266
 41
1.570117955439056
 42
50.0
 43
0.0
 44
0.0
 50
0.0
 51
0.0
 71
     0
 72
  1000
 73
     1
 74
     3
 75
     0
 76
     0
 77
     0
 78
     0
281
     0
 65
     1
110
0.0
120
0.0
130
0.0
111
1.0
121
0.0
131
0.0
112
0.0
122
1.0
132
0.0
 79
     0
146
0.0
  0
ENDTAB
  0
TABLE
  2
LTYPE
  5
5
330
0
100
AcDbSymbolTable
 70
     1
  0
LTYPE
  5
14
330
5
100
AcDbSymbolTableRecord
100
AcDbLinetypeTableRecord
  2
ByBlock
 70
     0
  3

 72
    65
 73
     0
 40
0.0
  0
LTYPE
  5
15
330
5
100
AcDbSymbolTableRecord
100
AcDbLinetypeTableRecord
  2
ByLayer
 70
     0
  3

 72
    65
 73
     0
 40
0.0
  0
LTYPE
  5
16
330
5
100
AcDbSymbolTableRecord
100
AcDbLinetypeTableRecord
  2
Continuous
 70
     0
  3
Solid line
 72
    65
 73
     0
 40
0.0
  0
ENDTAB
  0
TABLE
  2
LAYER
  5
2
102
{ACAD_XDICTIONARY
360
1F7
102
}
330
0
100
AcDbSymbolTable
 70
     3
  0
LAYER
  5
10
330
2
100
AcDbSymbolTableRecord
100
AcDbLayerTableRecord
  2
0
 70
     0
 62
     7
  6
Continuous
370
    -3
390
F
  0
LAYER
  5
1F2
330
2
100
AcDbSymbolTableRecord
100
AcDbLayerTableRecord
  2
DEFPOINTS
 70
     0
 62
     7
  6
Continuous
290
     0
370
    -3
390
1F6
  0
LAYER
  5
E49
330
2
100
AcDbSymbolTableRecord
100
AcDbLayerTableRecord
  2
DEPA
 70
     0
 62
    31
  6
Continuous
370
    -3
390
F
1001
AcAecLayerStandard
1000

1000

  0
ENDTAB
  0
TABLE
  2
STYLE
  5
3
330
0
100
AcDbSymbolTable
 70
    15
  0
STYLE
  5
11
330
3
100
AcDbSymbolTableRecord
100
AcDbTextStyleTableRecord
  2
Standard
 70
     0
 40
0.0
 41
1.0
 50
0.0
 71
     0
 42
0.2
  3
txt
  4

  0
ENDTAB
  0
TABLE
  2
VIEW
  5
6
330
0
100
AcDbSymbolTable
 70
     0
  0
ENDTAB
  0
TABLE
  2
UCS
  5
7
330
0
100
AcDbSymbolTable
 70
     0
  0
ENDTAB
  0
TABLE
  2
APPID
  5
9
330
0
100
AcDbSymbolTable
 70
    16
  0
APPID
  5
12
330
9
100
AcDbSymbolTableRecord
100
AcDbRegAppTableRecord
  2
ACAD
 70
     0
  0
APPID
  5
BC
330
9
100
AcDbSymbolTableRecord
100
AcDbRegAppTableRecord
  2
ACAD_EXEMPT_FROM_CAD_STANDARDS
 70
     0
  0
APPID
  5
BD
330
9
100
AcDbSymbolTableRecord
100
AcDbRegAppTableRecord
  2
ACAD_DSTYLE_DIM_LINETYPE
 70
     0
  0
APPID
  5
BE
330
9
100
AcDbSymbolTableRecord
100
AcDbRegAppTableRecord
  2
ACAD_DSTYLE_DIM_EXT1_LINETYPE
 70
     0
  0
APPID
  5
BF
330
9
100
AcDbSymbolTableRecord
100
AcDbRegAppTableRecord
  2
ACAD_DSTYLE_DIM_EXT2_LINETYPE
 70
     0
  0
APPID
  5
1F3
330
9
100
AcDbSymbolTableRecord
100
AcDbRegAppTableRecord
  2
AECBASE
 70
     0
  0
APPID
  5
1F4
330
9
100
AcDbSymbolTableRecord
100
AcDbRegAppTableRecord
  2
ACAD_PSEXT
 70
     0
  0
APPID
  5
1F5
330
9
100
AcDbSymbolTableRecord
100
AcDbRegAppTableRecord
  2
AEC_OBJVER_INFO
 70
     0
  0
APPID
  5
272
330
9
100
AcDbSymbolTableRecord
100
AcDbRegAppTableRecord
  2
AcAecLayerStandard
 70
     0
  0
APPID
  5
273
330
9
100
AcDbSymbolTableRecord
100
AcDbRegAppTableRecord
  2
AcDbDynamicBlockGUID
 70
     0
  0
APPID
  5
274
330
9
100
AcDbSymbolTableRecord
100
AcDbRegAppTableRecord
  2
AcDbBlockRepETag
 70
     0
  0
APPID
  5
57F
330
9
100
AcDbSymbolTableRecord
100
AcDbRegAppTableRecord
  2
ACAD_DSTYLE_DIMEXT_ENABLED
 70
     0
  0
APPID
  5
580
330
9
100
AcDbSymbolTableRecord
100
AcDbRegAppTableRecord
  2
ACAD_DSTYLE_DIMEXT_LENGTH
 70
     0
  0
APPID
  5
FE2
330
9
100
AcDbSymbolTableRecord
100
AcDbRegAppTableRecord
  2
ACAUTHENVIRON
 70
     0
  0
APPID
  5
114A
330
9
100
AcDbSymbolTableRecord
100
AcDbRegAppTableRecord
  2
AcDbDynamicBlockTrueName
 70
     0
  0
APPID
  5
7C09
330
9
100
AcDbSymbolTableRecord
100
AcDbRegAppTableRecord
  2
AcDbBlockRepBTag
 70
     0
  0
ENDTAB
  0
TABLE
  2
DIMSTYLE
  5
A
330
0
100
AcDbSymbolTable
 70
    22
100
AcDbDimStyleTable
 71
     1
340
27
  0
DIMSTYLE
105
27
330
A
100
AcDbSymbolTableRecord
100
AcDbDimStyleTableRecord
  2
Standard
 70
     0
340
11
  0
ENDTAB
  0
TABLE
  2
BLOCK_RECORD
  5
1
330
0
100
AcDbSymbolTable
 70
    40
  0
BLOCK_RECORD
  5
1F
102
{ACAD_XDICTIONARY
360
2DE
102
}
330
1
100
AcDbSymbolTableRecord
100
AcDbBlockTableRecord
  2
*Model_Space
340
22
  0
BLOCK_RECORD
  5
58
330
1
100
AcDbSymbolTableRecord
100
AcDbBlockTableRecord
  2
*Paper_Space
340
59
  0
BLOCK_RECORD
  5
5D
330
1
100
AcDbSymbolTableRecord
100
AcDbBlockTableRecord
  2
*Paper_Space0
340
5E
  0
BLOCK_RECORD
  5
12854
102
{ACAD_XDICTIONARY
360
12CBC
102
}
330
1
100
AcDbSymbolTableRecord
100
AcDbBlockTableRecord
  2
TR_03
340
0
310
2800000020000000200000000100080000000000000400000000000000000000000000000000000000000000000080000080000000808000800000008000800080800000C0C0C000C0DCC000F0CAA6000020400000206000002080000020A0000020C0000020E00000400000004020000040400000406000004080000040A0
310
000040C0000040E00000600000006020000060400000606000006080000060A0000060C0000060E00000800000008020000080400000806000008080000080A0000080C0000080E00000A0000000A0200000A0400000A0600000A0800000A0A00000A0C00000A0E00000C0000000C0200000C0400000C0600000C0800000C0
310
A00000C0C00000C0E00000E0000000E0200000E0400000E0600000E0800000E0A00000E0C00000E0E00040000000400020004000400040006000400080004000A0004000C0004000E00040200000402020004020400040206000402080004020A0004020C0004020E000404000004040200040404000404060004040800040
310
40A0004040C0004040E00040600000406020004060400040606000406080004060A0004060C0004060E00040800000408020004080400040806000408080004080A0004080C0004080E00040A0000040A0200040A0400040A0600040A0800040A0A00040A0C00040A0E00040C0000040C0200040C0400040C0600040C08000
310
40C0A00040C0C00040C0E00040E0000040E0200040E0400040E0600040E0800040E0A00040E0C00040E0E00080000000800020008000400080006000800080008000A0008000C0008000E00080200000802020008020400080206000802080008020A0008020C0008020E00080400000804020008040400080406000804080
310
008040A0008040C0008040E00080600000806020008060400080606000806080008060A0008060C0008060E00080800000808020008080400080806000808080008080A0008080C0008080E00080A0000080A0200080A0400080A0600080A0800080A0A00080A0C00080A0E00080C0000080C0200080C0400080C0600080C0
310
800080C0A00080C0C00080C0E00080E0000080E0200080E0400080E0600080E0800080E0A00080E0C00080E0E000C0000000C0002000C0004000C0006000C0008000C000A000C000C000C000E000C0200000C0202000C0204000C0206000C0208000C020A000C020C000C020E000C0400000C0402000C0404000C0406000C0
310
408000C040A000C040C000C040E000C0600000C0602000C0604000C0606000C0608000C060A000C060C000C060E000C0800000C0802000C0804000C0806000C0808000C080A000C080C000C080E000C0A00000C0A02000C0A04000C0A06000C0A08000C0A0A000C0A0C000C0A0E000C0C00000C0C02000C0C04000C0C06000
310
C0C08000C0C0A000F0FBFF00A4A0A000808080000000FF0000FF000000FFFF00FF000000FF00FF00FFFF0000FFFFFF0000000000000000000000000000000000000000000000000000000000000000000000000000000000FFFFFFFFFFFFFFFFFFFFFFFFFFFFFFFF00000000000000000000000000000000FF0000FFFFFFFF
310
0000000000000000FF00000000000000000000000000000000FF00FFFFFFFFFFFF00000000000000FF00000000000000000000000000000000FFFFFFFFFFFFFFFF00000000000000FF00000000000000000000000000000000FFFFFFFF00FFFFFFFF000000000000FF00000000000000000000000000000000FFFFFFFFFFFF
310
FFFFFF000000000000FF00000000000000000000000000000000FF00FFFFFFFFFFFFFFFFFFFF000000FF00000000000000000000000000000000FF00FFFFFFFFFFFFFFFFFFFFFFFF00FF00000000000000000000000000000000FF0000000000FFFFFFFFFFFFFFFFFFFF00000000000000000000000000000000FF00000000
310
FFFFFFFFFFFFFFFFFFFFFF00000000000000000000000000000000FF00000000FFFFFFFF0000FFFFFFFFFF00000000000000000000000000000000FF00000000FFFFFFFF0000FFFFFFFFFF00000000000000000000000000000000FF00000000FFFFFFFFFF00FFFFFFFFFF00000000000000000000000000000000FF000000
310
00FFFFFFFFFFFFFFFFFFFFFF00000000000000000000000000000000FF000000FFFFFFFFFFFFFFFFFFFFFFFF00000000000000000000000000000000FF00FFFFFFFFFFFFFFFFFFFFFF0000FF00000000000000000000000000000000FFFFFFFFFFFFFFFF00FFFFFF000000FF00000000000000000000000000000000FFFFFF
310
FFFFFFFFFF00FFFFFFFFFF00FF00000000000000000000000000000000FFFFFFFF00FFFFFFFFFFFFFFFFFFFFFF00000000000000000000000000000000FFFFFFFFFFFFFFFFFFFFFFFFFFFFFFFF00000000000000000000000000000000FF00FFFFFFFFFFFFFFFFFF00FFFFFFFF00000000000000000000000000000000FF00
310
00FFFFFF0000FFFFFFFFFFFFFFFF00000000000000000000000000000000FF0000FFFFFFFFFFFFFFFFFFFFFFFFFF00000000000000000000000000000000FF00FFFFFFFFFFFFFFFFFFFFFFFF00FF00000000000000000000000000000000FF00FFFFFFFFFFFFFF000000000000FF00000000000000000000000000000000FF
310
00FFFFFF00FFFFFF000000000000FF00000000000000000000000000000000FF00FFFFFFFFFFFFFF000000000000FF00000000000000000000000000000000FF0000FFFFFFFFFFFF000000000000FF00000000000000000000000000000000FF000000FFFFFFFF00000000000000FF00000000000000000000000000000000
310
FFFFFFFFFFFFFFFFFFFFFFFFFFFFFFFF00000000000000000000000000000000000000000000000000000000000000000000000000000000
102
{BLKREFS
331
12A87
331
12A8D
331
12A8E
331
12A8F
331
12A90
331
12A91
102
}
1001
AcDbDynamicBlockGUID
1000
{68715ACA-9FB5-461F-84D8-EEBFFC40B374}
1001
AcDbBlockRepETag
1070
     1
1071
      551
1001
ACAD
1000
DesignCenter Data
1002
{
1070
     1
1070
     6
1002
}
  0
ENDTAB
  0
ENDSEC
  0
SECTION
  2
BLOCKS
  0
BLOCK
  5
20
330
1F
100
AcDbEntity
  8
0
100
AcDbBlockBegin
  2
*Model_Space
 70
     0
 10
0.0
 20
0.0
 30
0.0
  3
*Model_Space
  1

  0
ENDBLK
  5
21
330
1F
100
AcDbEntity
  8
0
100
AcDbBlockEnd
  0
BLOCK
  5
5A
330
58
100
AcDbEntity
 67
     1
  8
0
100
AcDbBlockBegin
  2
*Paper_Space
 70
     0
 10
0.0
 20
0.0
 30
0.0
  3
*Paper_Space
  1

  0
ENDBLK
  5
5B
330
58
100
AcDbEntity
 67
     1
  8
0
100
AcDbBlockEnd
  0
BLOCK
  5
5F
330
5D
100
AcDbEntity
 67
     1
  8
0
100
AcDbBlockBegin
  2
*Paper_Space0
 70
     0
 10
0.0
 20
0.0
 30
0.0
  3
*Paper_Space0
  1

  0
ENDBLK
  5
60
330
5D
100
AcDbEntity
 67
     1
  8
0
100
AcDbBlockEnd
  0
BLOCK
  5
12855
330
12854
100
AcDbEntity
  8
0
 62
     1
100
AcDbBlockBegin
  2
TR_03
 70
     0
 10
0.0
 20
0.0
 30
0.0
  3
TR_03
  1

  0
LWPOLYLINE
  5
12A95
330
12854
100
AcDbEntity
  8
DEPA
100
AcDbPolyline
 90
        4
 70
     1
 43
0.0
 10
-0.3000000000000007
 20
-1.199999999999999
 10
0.3000000000000007
 20
-1.199999999999999
 10
0.3000000000000007
 20
0.0
 10
-0.3000000000000007
 20
0.0
1001
AcDbBlockRepETag
1070
     1
1071
        0
1005
12A95
  0
LWPOLYLINE
  5
12A96
330
12854
100
AcDbEntity
  8
DEPA
100
AcDbPolyline
 90
        4
 70
     1
 43
0.0
 10
-0.1329908683902126
 20
-0.9868516914397496
 10
-0.1269908683902123
 20
-0.9868516914397496
 10
-0.1269908683902123
 20
-0.9618216343128409
 10
-0.1329908683902126
 20
-0.9618216343128409
1001
AcDbBlockRepETag
1070
     1
1071
        1
1005
12A96
  0
LWPOLYLINE
  5
12A97
330
12854
100
AcDbEntity
  8
DEPA
100
AcDbPolyline
 90
        4
 70
     1
 43
0.0
 10
-0.1329908683902126
 20
-0.956851691439752
 10
-0.1269908683902123
 20
-0.956851691439752
 10
-0.1269908683902123
 20
-0.9318216343128433
 10
-0.1329908683902126
 20
-0.9318216343128433
1001
AcDbBlockRepETag
1070
     1
1071
        2
1005
12A97
  0
LWPOLYLINE
  5
12A98
330
12854
100
AcDbEntity
  8
DEPA
100
AcDbPolyline
 90
        4
 70
     1
 43
0.0
 10
-0.1329908683902126
 20
-0.9268516914397508
 10
-0.1269908683902123
 20
-0.9268516914397508
 10
-0.1269908683902123
 20
-0.9018216343128422
 10
-0.1329908683902126
 20
-0.9018216343128422
1001
AcDbBlockRepETag
1070
     1
1071
        3
1005
12A98
  0
LWPOLYLINE
  5
12A99
330
12854
100
AcDbEntity
  8
DEPA
100
AcDbPolyline
 90
        4
 70
     1
 43
0.0
 10
-0.1453087099617711
 20
-0.9891657729799554
 10
-0.1394972109949997
 20
-0.9876736336569678
 10
-0.1457219330776205
 20
-0.9634299418017562
 10
-0.151533432044392
 20
-0.9649220811247438
1001
AcDbBlockRepETag
1070
     1
1071
        4
1005
12A99
  0
LWPOLYLINE
  5
12A9A
330
12854
100
AcDbEntity
  8
DEPA
100
AcDbPolyline
 90
        4
 70
     1
 43
0.0
 10
-0.1566640752123156
 20
-0.994470476023828
 10
-0.151406235132054
 20
-0.9915799539792189
 10
-0.163464557115919
 20
-0.96964594771703
 10
-0.1687223971961806
 20
-0.9725364697616392
1001
AcDbBlockRepETag
1070
     1
1071
        5
1005
12A9A
  0
LWPOLYLINE
  5
12A9B
330
12854
100
AcDbEntity
  8
DEPA
100
AcDbPolyline
 90
        4
 70
     1
 43
0.0
 10
-0.1663434647810256
 20
-1.002432486569787
 10
-0.1619696530164951
 20
-0.9983252039342147
 10
-0.1791039061839506
 20
-0.9800790775461329
 10
-0.1834777179484739
 20
-0.984186360181706
1001
AcDbBlockRepETag
1070
     1
1071
        6
1005
12A9B
  0
LWPOLYLINE
  5
12A9C
330
12854
100
AcDbEntity
  8
DEPA
100
AcDbPolyline
 90
        4
 70
     1
 43
0.0
 10
-0.1737386870230075
 20
-1.012551522212991
 10
-0.1705237262531405
 20
-1.007485554659975
 10
-0.1916573024622927
 20
-0.9940737793715221
 10
-0.194872263232174
 20
-0.9991397469245377
1001
AcDbBlockRepETag
1070
     1
1071
        7
1005
12A9C
  0
LWPOLYLINE
  5
12A9D
330
12854
100
AcDbEntity
  8
DEPA
100
AcDbPolyline
 90
        4
 70
     1
 43
0.0
 10
-0.1783850729270675
 20
-1.024191766728787
 10
-0.1765309709608225
 20
-1.018485427631016
 10
-0.2003359698946063
 20
-1.010750714608622
 10
-0.2021900718608514
 20
-1.016457053706393
1001
AcDbBlockRepETag
1070
     1
1071
        8
1005
12A9D
  0
LWPOLYLINE
  5
12A9E
330
12854
100
AcDbEntity
  8
DEPA
100
AcDbPolyline
 90
        4
 70
     1
 43
0.0
 10
-0.1799906729786436
 20
-1.036621820744397
 10
-0.1796139298614712
 20
-1.030633660373826
 10
-0.2045945958882065
 20
-1.029062010082984
 10
-0.204971339005386
 20
-1.035050170453548
1001
AcDbBlockRepETag
1070
     1
1071
        9
1005
12A9E
  0
LWPOLYLINE
  5
12A9F
330
12854
100
AcDbEntity
  8
DEPA
100
AcDbPolyline
 90
        4
 70
     1
 43
0.0
 10
-0.1784546014215103
 20
-1.049060658251509
 10
-0.179578889309024
 20
-1.04316693474713
 10
-0.2041655953097994
 20
-1.047857099755727
 10
-0.2030413074222856
 20
-1.053750823260106
1001
AcDbBlockRepETag
1070
     1
1071
       10
1005
12A9F
  0
LWPOLYLINE
  5
12AA0
330
12854
100
AcDbEntity
  8
DEPA
100
AcDbPolyline
 90
        4
 70
     1
 43
0.0
 10
-0.1738733752808734
 20
-1.060726701342677
 10
-0.1764280510302676
 20
-1.055297739027881
 10
-0.1990759238434627
 20
-1.065955019019209
 10
-0.1965212480940757
 20
-1.071383981334005
1001
AcDbBlockRepETag
1070
     1
1071
       11
1005
12AA0
  0
LWPOLYLINE
  5
12AA1
330
12854
100
AcDbEntity
  8
DEPA
100
AcDbPolyline
 90
        4
 70
     1
 43
0.0
 10
-0.1665348498437389
 20
-1.07088692962581
 10
-0.1703593937822312
 20
-1.066263850169153
 10
-0.1896453842659476
 20
-1.082218609046631
 10
-0.1858208403274553
 20
-1.08684168850328
1001
AcDbBlockRepETag
1070
     1
1071
       12
1005
12AA1
  0
LWPOLYLINE
  5
12AA2
330
12854
100
AcDbEntity
  8
DEPA
100
AcDbPolyline
 90
        4
 70
     1
 43
0.0
 10
-0.1569001316525025
 20
-1.078902938591145
 10
-0.1617542336187618
 20
-1.075376227077388
 10
-0.1764665320619905
 20
-1.095625968663231
 10
-0.1716124300957453
 20
-1.099152680176988
1001
AcDbBlockRepETag
1070
     1
1071
       13
1005
12AA2
  0
LWPOLYLINE
  5
12AA3
330
12854
100
AcDbEntity
  8
DEPA
100
AcDbPolyline
 90
        4
 70
     1
 43
0.0
 10
-0.1455746054851552
 20
-1.084271052914584
 10
-0.151153264400488
 20
-1.082062305598473
 10
-0.1603674429840005
 20
-1.10533466415551
 10
-0.1547887840686677
 20
-1.10754341147162
1001
AcDbBlockRepETag
1070
     1
1071
       14
1005
12AA3
  0
LWPOLYLINE
  5
12AA4
330
12854
100
AcDbEntity
  8
DEPA
100
AcDbPolyline
 90
        4
 70
     1
 43
0.0
 10
-0.1332698958031635
 20
-1.086653974230635
 10
-0.1392225840110477
 20
-1.085901974829251
 10
-0.1423596820070578
 20
-1.1107346624796
 10
-0.1364069937991736
 20
-1.111486661880984
1001
AcDbBlockRepETag
1070
     1
1071
       15
1005
12AA4
  0
LWPOLYLINE
  5
12AA5
330
12854
100
AcDbEntity
  8
DEPA
100
AcDbPolyline
 90
        4
 70
     1
 43
0.0
 10
-0.1207591527693843
 20
-1.085901974829262
 10
-0.1267118409772685
 20
-1.086653974230646
 10
-0.1235747429812513
 20
-1.111486661880999
 10
-0.1176220547733671
 20
-1.110734662479611
1001
AcDbBlockRepETag
1070
     1
1071
       16
1005
12AA5
  0
LWPOLYLINE
  5
12AA6
330
12854
100
AcDbEntity
  8
DEPA
100
AcDbPolyline
 90
        4
 70
     1
 43
0.0
 10
-0.1088284723799369
 20
-1.082062305598476
 10
-0.1144071312952697
 20
-1.084271052914584
 10
-0.1051929527117572
 20
-1.107543411471624
 10
-0.0996142937964244
 20
-1.105334664155517
1001
AcDbBlockRepETag
1070
     1
1071
       17
1005
12AA6
  0
LWPOLYLINE
  5
12AA7
330
12854
100
AcDbEntity
  8
DEPA
100
AcDbPolyline
 90
        4
 70
     1
 43
0.0
 10
-0.0982275031616844
 20
-1.075376227077391
 10
-0.1030816051279295
 20
-1.078902938591149
 10
-0.0883693066846938
 20
-1.099152680176992
 10
-0.0835152047184487
 20
-1.095625968663235
1001
AcDbBlockRepETag
1070
     1
1071
       18
1005
12AA7
  0
LWPOLYLINE
  5
12AA8
330
12854
100
AcDbEntity
  8
DEPA
100
AcDbPolyline
 90
        4
 70
     1
 43
0.0
 10
-0.0896223429981937
 20
-1.066263850169157
 10
-0.093446886936686
 20
-1.07088692962581
 10
-0.0741608964529625
 20
-1.08684168850328
 10
-0.0703363525144702
 20
-1.082218609046631
1001
AcDbBlockRepETag
1070
     1
1071
       19
1005
12AA8
  0
LWPOLYLINE
  5
12AA9
330
12854
100
AcDbEntity
  8
DEPA
100
AcDbPolyline
 90
        4
 70
     1
 43
0.0
 10
-0.0835536857501431
 20
-1.055297739027889
 10
-0.0861083614995373
 20
-1.060726701342684
 10
-0.0634604886863421
 20
-1.071383981334012
 10
-0.060905812936948
 20
-1.065955019019217
1001
AcDbBlockRepETag
1070
     1
1071
       20
1005
12AA9
  0
LWPOLYLINE
  5
12AAA
330
12854
100
AcDbEntity
  8
DEPA
100
AcDbPolyline
 90
        4
 70
     1
 43
0.0
 10
-0.0804028474714009
 20
-1.043166934747134
 10
-0.0815271353589076
 20
-1.049060658251512
 10
-0.0569404293581393
 20
-1.053750823260109
 10
-0.0558161414706255
 20
-1.047857099755731
1001
AcDbBlockRepETag
1070
     1
1071
       21
1005
12AAA
  0
LWPOLYLINE
  5
12AAB
330
12854
100
AcDbEntity
  8
DEPA
100
AcDbPolyline
 90
        4
 70
     1
 43
0.0
 10
-0.0803678069189538
 20
-1.030633660373823
 10
-0.0799910638017742
 20
-1.036621820744393
 10
-0.0550103977750318
 20
-1.035050170453544
 10
-0.0553871408922113
 20
-1.029062010082974
1001
AcDbBlockRepETag
1070
     1
1071
       22
1005
12AAB
  0
LWPOLYLINE
  5
12AAC
330
12854
100
AcDbEntity
  8
DEPA
100
AcDbPolyline
 90
        4
 70
     1
 43
0.0
 10
-0.0834507658196024
 20
-1.018485427631013
 10
-0.0815966638533574
 20
-1.024191766728783
 10
-0.0577916649195665
 20
-1.016457053706389
 10
-0.0596457668858186
 20
-1.010750714608619
1001
AcDbBlockRepETag
1070
     1
1071
       23
1005
12AAC
  0
LWPOLYLINE
  5
12AAD
330
12854
100
AcDbEntity
  8
DEPA
100
AcDbPolyline
 90
        4
 70
     1
 43
0.0
 10
-0.0894580105272915
 20
-1.007485554659979
 10
-0.0862430497574174
 20
-1.012551522212994
 10
-0.065109473548258
 20
-0.9991397469245413
 10
-0.0683244343181322
 20
-0.9940737793715257
1001
AcDbBlockRepETag
1070
     1
1071
       24
1005
12AAD
  0
LWPOLYLINE
  5
12AAE
330
12854
100
AcDbEntity
  8
DEPA
100
AcDbPolyline
 90
        4
 70
     1
 43
0.0
 10
-0.0980120837639298
 20
-0.9983252039342147
 10
-0.0936382719993923
 20
-1.002432486569787
 10
-0.0765040188319368
 20
-0.9841863601817024
 10
-0.0808778305964744
 20
-0.9800790775461294
1001
AcDbBlockRepETag
1070
     1
1071
       25
1005
12AAE
  0
LWPOLYLINE
  5
12AAF
330
12854
100
AcDbEntity
  8
DEPA
100
AcDbPolyline
 90
        4
 70
     1
 43
0.0
 10
-0.1085755016483709
 20
-0.991579953979226
 10
-0.1033176615681093
 20
-0.9944704760238352
 10
-0.0912593395842514
 20
-0.9725364697616427
 10
-0.096517179664513
 20
-0.9696459477170336
1001
AcDbBlockRepETag
1070
     1
1071
       26
1005
12AAF
  0
LWPOLYLINE
  5
12AB0
330
12854
100
AcDbEntity
  8
DEPA
100
AcDbPolyline
 90
        4
 70
     1
 43
0.0
 10
-0.1204845257854181
 20
-0.9876736336569713
 10
-0.1146730268186467
 20
-0.9891657729799625
 10
-0.1084483047360258
 20
-0.9649220811247509
 10
-0.1142598037027973
 20
-0.9634299418017597
1001
AcDbBlockRepETag
1070
     1
1071
       27
1005
12AB0
  0
LWPOLYLINE
  5
12AB1
330
12854
100
AcDbEntity
  8
DEPA
100
AcDbPolyline
 90
        4
 70
     1
 43
0.0
 10
-0.1472111241301626
 20
-0.9586715473951805
 10
-0.141307546598572
 20
-0.9576002060263881
 10
-0.1457768358757825
 20
-0.9329723922149071
 10
-0.151680413407373
 20
-0.9340437335836995
1001
AcDbBlockRepETag
1070
     1
1071
       28
1005
12AB1
  0
LWPOLYLINE
  5
12AB2
330
12854
100
AcDbEntity
  8
DEPA
100
AcDbPolyline
 90
        4
 70
     1
 43
0.0
 10
-0.1608779066817654
 20
-0.9630012822248801
 10
-0.1552604974579275
 20
-0.9608930332803922
 10
-0.1640554293776439
 20
-0.9374590209840754
 10
-0.1696728386014819
 20
-0.9395672699285633
1001
AcDbBlockRepETag
1070
     1
1071
       29
1005
12AB2
  0
LWPOLYLINE
  5
12AB3
330
12854
100
AcDbEntity
  8
DEPA
100
AcDbPolyline
 90
        4
 70
     1
 43
0.0
 10
-0.1735519544087261
 20
-0.9697017346889111
 10
-0.1684012616471158
 20
-0.9666243390244773
 10
-0.1812391598609331
 20
-0.9451373166800962
 10
-0.1863898526225505
 20
-0.9482147123445301
1001
AcDbBlockRepETag
1070
     1
1071
       30
1005
12AB3
  0
LWPOLYLINE
  5
12AB4
330
12854
100
AcDbEntity
  8
DEPA
100
AcDbPolyline
 90
        4
 70
     1
 43
0.0
 10
-0.1848259129888809
 20
-0.978557546731924
 10
-0.1803074841928556
 20
-0.974609914376284
 10
-0.1967757280891327
 20
-0.9557604925615699
 10
-0.2012941568851581
 20
-0.9597081249172099
1001
AcDbBlockRepETag
1070
     1
1071
       31
1005
12AB4
  0
LWPOLYLINE
  5
12AB5
330
12854
100
AcDbEntity
  8
DEPA
100
AcDbPolyline
 90
        4
 70
     1
 43
0.0
 10
-0.1943374281172048
 20
-0.9892840852682809
 10
-0.1905964893060563
 20
-0.984593096373473
 10
-0.2101657759758417
 20
-0.9689871110149042
 10
-0.2139067147869973
 20
-0.9736780999097121
1001
AcDbBlockRepETag
1070
     1
1071
       32
1005
12AB5
  0
LWPOLYLINE
  5
12AB6
330
12854
100
AcDbEntity
  8
DEPA
100
AcDbPolyline
 90
        4
 70
     1
 43
0.0
 10
-0.2017807918713821
 20
-1.001536590523574
 10
-0.1989375798965476
 20
-0.9962530173324388
 10
-0.2209789363646202
 20
-0.9843920576400861
 10
-0.2238221483394547
 20
-0.9896756308312255
1001
AcDbBlockRepETag
1070
     1
1071
       33
1005
12AB6
  0
LWPOLYLINE
  5
12AB7
330
12854
100
AcDbEntity
  8
DEPA
100
AcDbPolyline
 90
        4
 70
     1
 43
0.0
 10
-0.206916768415919
 20
-1.014921256897537
 10
-0.205062666449674
 20
-1.009214917799766
 10
-0.2288676653834578
 20
-1.001480204777376
 10
-0.2307217673497028
 20
-1.007186543875146
1001
AcDbBlockRepETag
1070
     1
1071
       34
1005
12AB7
  0
LWPOLYLINE
  5
12AB8
330
12854
100
AcDbEntity
  8
DEPA
100
AcDbPolyline
 90
        4
 70
     1
 43
0.0
 10
-0.2095802832388038
 20
-1.029007890199945
 10
-0.2087748836438941
 20
-1.023062191629339
 10
-0.2335784127908447
 20
-1.019702325317592
 10
-0.2343838123857473
 20
-1.025648023888198
1001
AcDbBlockRepETag
1070
     1
1071
       35
1005
12AB8
  0
LWPOLYLINE
  5
12AB9
330
12854
100
AcDbEntity
  8
DEPA
100
AcDbPolyline
 90
        4
 70
     1
 43
0.0
 10
-0.2096857287820519
 20
-1.043343734445937
 10
-0.2099549177641542
 20
-1.037349776046685
 10
-0.2349597712890663
 20
-1.038472745313345
 10
-0.234690582306964
 20
-1.044466703712597
1001
AcDbBlockRepETag
1070
     1
1071
       36
1005
12AB9
  0
LWPOLYLINE
  5
12ABA
330
12854
100
AcDbEntity
  8
DEPA
100
AcDbPolyline
 90
        4
 70
     1
 43
0.0
 10
-0.2072297159391603
 20
-1.057468023805892
 10
-0.2085648415428984
 20
-1.0516184563328
 10
-0.2329673428794301
 20
-1.057188168021664
 10
-0.2316322172756848
 20
-1.063037735494756
1001
AcDbBlockRepETag
1070
     1
1071
       37
1005
12ABA
  0
LWPOLYLINE
  5
12ABB
330
12854
100
AcDbEntity
  8
DEPA
100
AcDbPolyline
 90
        4
 70
     1
 43
0.0
 10
-0.2022911829837106
 20
-1.070926791998271
 10
-0.2046493331736308
 20
-1.065409625362963
 10
-0.2276651658503788
 20
-1.075247064357565
 10
-0.2253070156604515
 20
-1.080764230992873
1001
AcDbBlockRepETag
1070
     1
1071
       38
1005
12ABB
  0
LWPOLYLINE
  5
12ABC
330
12854
100
AcDbEntity
  8
DEPA
100
AcDbPolyline
 90
        4
 70
     1
 43
0.0
 10
-0.1950288584283264
 20
-1.083287463139459
 10
-0.1983342403170418
 20
-1.078280023617129
 10
-0.2192236565342789
 20
-1.092069006533922
 10
-0.2159182746455635
 20
-1.097076446056245
1001
AcDbBlockRepETag
1070
     1
1071
       39
1005
12ABC
  0
LWPOLYLINE
  5
12ABD
330
12854
100
AcDbEntity
  8
DEPA
100
AcDbPolyline
 90
        4
 70
     1
 43
0.0
 10
-0.1856761593596836
 20
-1.094152755088568
 10
-0.189822535253608
 20
-1.089815985905605
 10
-0.2079141319862394
 20
-1.107113323488025
 10
-0.2037677560923221
 20
-1.111450092670981
1001
AcDbBlockRepETag
1070
     1
1071
       40
1005
12ABD
  0
LWPOLYLINE
  5
12ABE
330
12854
100
AcDbEntity
  8
DEPA
100
AcDbPolyline
 90
        4
 70
     1
 43
0.0
 10
-0.1745336892212812
 20
-1.103173448422385
 10
-0.1793877911875334
 20
-1.099646736908635
 10
-0.1941000896307692
 20
-1.119896478494478
 10
-0.1892459876645169
 20
-1.123423190008228
1001
AcDbBlockRepETag
1070
     1
1071
       41
1005
12ABE
  0
LWPOLYLINE
  5
12ABF
330
12854
100
AcDbEntity
  8
DEPA
100
AcDbPolyline
 90
        4
 70
     1
 43
0.0
 10
-0.1619595761714017
 20
-1.110059610634909
 10
-0.1673653893788121
 20
-1.107456308200209
 10
-0.1782255241553621
 20
-1.13000761043337
 10
-0.1728197109479446
 20
-1.132610912868077
1001
AcDbBlockRepETag
1070
     1
1071
       42
1005
12ABF
  0
LWPOLYLINE
  5
12AC0
330
12854
100
AcDbEntity
  8
DEPA
100
AcDbPolyline
 90
        4
 70
     1
 43
0.0
 10
-0.1483579625495004
 20
-1.114589914806657
 10
-0.1541417397136762
 20
-1.112993693733255
 10
-0.1608006571560701
 20
-1.13712173920469
 10
-0.1550168799918943
 20
-1.138717960278093
1001
AcDbBlockRepETag
1070
     1
1071
       43
1005
12AC0
  0
LWPOLYLINE
  5
12AC1
330
12854
100
AcDbEntity
  8
DEPA
100
AcDbPolyline
 90
        4
 70
     1
 43
0.0
 10
-0.1341660154088196
 20
-1.116618753234018
 10
-0.1401418611727898
 20
-1.116080917380596
 10
-0.1423855381954588
 20
-1.141010210856229
 10
-0.1364096924314886
 20
-1.141548046709651
1001
AcDbBlockRepETag
1070
     1
1071
       44
1005
12AC1
  0
LWPOLYLINE
  5
12AC2
330
12854
100
AcDbEntity
  8
DEPA
100
AcDbPolyline
 90
        4
 70
     1
 43
0.0
 10
-0.1198398756076422
 20
-1.116080917380596
 10
-0.1258157213716196
 20
-1.116618753234018
 10
-0.1235720443489505
 20
-1.141548046709651
 10
-0.1175961985849732
 20
-1.141010210856229
1001
AcDbBlockRepETag
1070
     1
1071
       45
1005
12AC2
  0
LWPOLYLINE
  5
12AC3
330
12854
100
AcDbEntity
  8
DEPA
100
AcDbPolyline
 90
        4
 70
     1
 43
0.0
 10
-0.1058399970667487
 20
-1.112993693733265
 10
-0.1116237742309245
 20
-1.114589914806668
 10
-0.1049648567885235
 20
-1.138717960278096
 10
-0.0991810796243549
 20
-1.137121739204697
1001
AcDbBlockRepETag
1070
     1
1071
       46
1005
12AC3
  0
LWPOLYLINE
  5
12AC4
330
12854
100
AcDbEntity
  8
DEPA
100
AcDbPolyline
 90
        4
 70
     1
 43
0.0
 10
-0.0926163474015987
 20
-1.107456308200202
 10
-0.0980221606090162
 20
-1.110059610634909
 10
-0.0871620258324661
 20
-1.13261091286807
 10
-0.0817562126250486
 20
-1.130007610433363
1001
AcDbBlockRepETag
1070
     1
1071
       47
1005
12AC4
  0
LWPOLYLINE
  5
12AC5
330
12854
100
AcDbEntity
  8
DEPA
100
AcDbPolyline
 90
        4
 70
     1
 43
0.0
 10
-0.0805939455928986
 20
-1.099646736908638
 10
-0.0854480475591508
 20
-1.103173448422396
 10
-0.070735749115908
 20
-1.123423190008239
 10
-0.0658816471496628
 20
-1.119896478494482
1001
AcDbBlockRepETag
1070
     1
1071
       48
1005
12AC5
  0
LWPOLYLINE
  5
12AC6
330
12854
100
AcDbEntity
  8
DEPA
100
AcDbPolyline
 90
        4
 70
     1
 43
0.0
 10
-0.0701592015268169
 20
-1.089815985905612
 10
-0.0743055774207413
 20
-1.094152755088575
 10
-0.0562139806881028
 20
-1.111450092670992
 10
-0.0520676047941855
 20
-1.107113323488025
1001
AcDbBlockRepETag
1070
     1
1071
       49
1005
12AC6
  0
LWPOLYLINE
  5
12AC7
330
12854
100
AcDbEntity
  8
DEPA
100
AcDbPolyline
 90
        4
 70
     1
 43
0.0
 10
-0.061647496463376
 20
-1.078280023617129
 10
-0.0649528783520985
 20
-1.083287463139456
 10
-0.0440634621348615
 20
-1.097076446056245
 10
-0.040758080246146
 20
-1.092069006533915
1001
AcDbBlockRepETag
1070
     1
1071
       50
1005
12AC7
  0
LWPOLYLINE
  5
12AC8
330
12854
100
AcDbEntity
  8
DEPA
100
AcDbPolyline
 90
        4
 70
     1
 43
0.0
 10
-0.0553324036067942
 20
-1.065409625362967
 10
-0.0576905537967143
 20
-1.070926791998275
 10
-0.0346747211199734
 20
-1.080764230992876
 10
-0.0323165709300533
 20
-1.075247064357569
1001
AcDbBlockRepETag
1070
     1
1071
       51
1005
12AC8
  0
LWPOLYLINE
  5
12AC9
330
12854
100
AcDbEntity
  8
DEPA
100
AcDbPolyline
 90
        4
 70
     1
 43
0.0
 10
-0.0514168952375265
 20
-1.051618456332803
 10
-0.0527520208412646
 20
-1.057468023805895
 10
-0.028349519504733
 20
-1.063037735494756
 10
-0.0270143939009948
 20
-1.057188168021664
1001
AcDbBlockRepETag
1070
     1
1071
       52
1005
12AC9
  0
LWPOLYLINE
  5
12ACA
330
12854
100
AcDbEntity
  8
DEPA
100
AcDbPolyline
 90
        4
 70
     1
 43
0.0
 10
-0.0500268190162707
 20
-1.037349776046696
 10
-0.050296007998373
 20
-1.04334373444594
 10
-0.0252911544734609
 20
-1.044466703712608
 10
-0.0250219654913586
 20
-1.038472745313363
1001
AcDbBlockRepETag
1070
     1
1071
       53
1005
12ACA
  0
LWPOLYLINE
  5
12ACB
330
12854
100
AcDbEntity
  8
DEPA
100
AcDbPolyline
 90
        4
 70
     1
 43
0.0
 10
-0.051206853136538
 20
-1.023062191629328
 10
-0.0504014535416353
 20
-1.029007890199935
 10
-0.0255979243946847
 20
-1.025648023888187
 10
-0.0264033239895873
 20
-1.019702325317581
1001
AcDbBlockRepETag
1070
     1
1071
       54
1005
12ACB
  0
LWPOLYLINE
  5
12ACC
330
12854
100
AcDbEntity
  8
DEPA
100
AcDbPolyline
 90
        4
 70
     1
 43
0.0
 10
-0.0549190703307581
 20
-1.009214917799759
 10
-0.0530649683645059
 20
-1.01492125689753
 10
-0.0292599694307221
 20
-1.007186543875143
 10
-0.0311140713969671
 20
-1.001480204777372
1001
AcDbBlockRepETag
1070
     1
1071
       55
1005
12ACC
  0
LWPOLYLINE
  5
12ACD
330
12854
100
AcDbEntity
  8
DEPA
100
AcDbPolyline
 90
        4
 70
     1
 43
0.0
 10
-0.0610441568838844
 20
-0.9962530173324353
 10
-0.0582009449090428
 20
-1.001536590523585
 10
-0.0361595884409773
 20
-0.9896756308312291
 10
-0.0390028004158118
 20
-0.9843920576400861
1001
AcDbBlockRepETag
1070
     1
1071
       56
1005
12ACD
  0
LWPOLYLINE
  5
12ACE
330
12854
100
AcDbEntity
  8
DEPA
100
AcDbPolyline
 90
        4
 70
     1
 43
0.0
 10
-0.0693852474743686
 20
-0.984593096373473
 10
-0.0656443086632201
 20
-0.9892840852682809
 10
-0.0460750219934276
 20
-0.9736780999097121
 10
-0.0498159608045832
 20
-0.9689871110149042
1001
AcDbBlockRepETag
1070
     1
1071
       57
1005
12ACE
  0
LWPOLYLINE
  5
12ACF
330
12854
100
AcDbEntity
  8
DEPA
100
AcDbPolyline
 90
        4
 70
     1
 43
0.0
 10
-0.0796742525875693
 20
-0.9746099143762876
 10
-0.075155823791544
 20
-0.9785575467319276
 10
-0.058687579895274
 20
-0.9597081249172134
 10
-0.0632060086912922
 20
-0.9557604925615805
1001
AcDbBlockRepETag
1070
     1
1071
       58
1005
12ACF
  0
LWPOLYLINE
  5
12AD0
330
12854
100
AcDbEntity
  8
DEPA
100
AcDbPolyline
 90
        4
 70
     1
 43
0.0
 10
-0.0915804751333021
 20
-0.9666243390244773
 10
-0.0864297823716918
 20
-0.9697017346889111
 10
-0.0735918841578744
 20
-0.9482147123445372
 10
-0.0787425769194847
 20
-0.9451373166800962
1001
AcDbBlockRepETag
1070
     1
1071
       59
1005
12AD0
  0
LWPOLYLINE
  5
12AD1
330
12854
100
AcDbEntity
  8
DEPA
100
AcDbPolyline
 90
        4
 70
     1
 43
0.0
 10
-0.1047212393224974
 20
-0.9608930332803922
 10
-0.0991038300986667
 20
-0.9630012822248801
 10
-0.0903088981789502
 20
-0.9395672699285597
 10
-0.0959263074027881
 20
-0.9374590209840718
1001
AcDbBlockRepETag
1070
     1
1071
       60
1005
12AD1
  0
LWPOLYLINE
  5
12AD2
330
12854
100
AcDbEntity
  8
DEPA
100
AcDbPolyline
 90
        4
 70
     1
 43
0.0
 10
-0.11867419018186
 20
-0.9576002060263881
 10
-0.1127706126502623
 20
-0.9586715473951805
 10
-0.1083013233730448
 20
-0.9340437335836995
 10
-0.1142049009046424
 20
-0.9329723922149071
1001
AcDbBlockRepETag
1070
     1
1071
       61
1005
12AD2
  0
LWPOLYLINE
  5
12AD3
330
12854
100
AcDbEntity
  8
DEPA
100
AcDbPolyline
 90
        4
 70
     1
 43
0.0
 10
-0.1467425780248952
 20
-0.9280943636791043
 10
-0.1407898898170039
 20
-0.9273423642777203
 10
-0.1439269878130212
 20
-0.9025096766273748
 10
-0.1498796760209125
 20
-0.9032616760287588
1001
AcDbBlockRepETag
1070
     1
1071
       62
1005
12AD3
  0
LWPOLYLINE
  5
12AD4
330
12854
100
AcDbEntity
  8
DEPA
100
AcDbPolyline
 90
        4
 70
     1
 43
0.0
 10
-0.1602301031916617
 20
-0.9310507833122407
 10
-0.1544186042248903
 20
-0.9295586439892531
 10
-0.1606433263075111
 20
-0.9053149521340415
 10
-0.1664548252742826
 20
-0.9068070914570292
1001
AcDbBlockRepETag
1070
     1
1071
       63
1005
12AD4
  0
LWPOLYLINE
  5
12AD5
330
12854
100
AcDbEntity
  8
DEPA
100
AcDbPolyline
 90
        4
 70
     1
 43
0.0
 10
-0.1732407375615601
 20
-0.9356743258354605
 10
-0.1676620786462344
 20
-0.9334655785193568
 10
-0.176876257229754
 20
-0.9101932199623128
 10
-0.1824549161450797
 20
-0.9124019672784235
1001
AcDbBlockRepETag
1070
     1
1071
       64
1005
12AD5
  0
LWPOLYLINE
  5
12AD6
330
12854
100
AcDbEntity
  8
DEPA
100
AcDbPolyline
 90
        4
 70
     1
 43
0.0
 10
-0.1855692956584143
 20
-0.9418920752211974
 10
-0.1803114555781526
 20
-0.9390015531765882
 10
-0.1923697775620177
 20
-0.9170675469143994
 10
-0.1976276176422793
 20
-0.9199580689590085
1001
AcDbBlockRepETag
1070
     1
1071
       65
1005
12AD6
  0
LWPOLYLINE
  5
12AD7
330
12854
100
AcDbEntity
  8
DEPA
100
AcDbPolyline
 90
        4
 70
     1
 43
0.0
 10
-0.1970213487562979
 20
-0.9496059738473405
 10
-0.1921672467900528
 20
-0.9460792623335869
 10
-0.2068795452332814
 20
-0.9258295207477438
 10
-0.2117336471995337
 20
-0.9293562322614974
1001
AcDbBlockRepETag
1070
     1
1071
       66
1005
12AD7
  0
LWPOLYLINE
  5
12AD8
330
12854
100
AcDbEntity
  8
DEPA
100
AcDbPolyline
 90
        4
 70
     1
 43
0.0
 10
-0.2074162911367487
 20
-0.9586943689245011
 10
-0.2030424793722183
 20
-0.954587086288928
 10
-0.2201767325396737
 20
-0.9363409599008463
 10
-0.2245505443042042
 20
-0.9404482425364193
1001
AcDbBlockRepETag
1070
     1
1071
       67
1005
12AD8
  0
LWPOLYLINE
  5
12AD9
330
12854
100
AcDbEntity
  8
DEPA
100
AcDbPolyline
 90
        4
 70
     1
 43
0.0
 10
-0.2165901883487784
 20
-0.9690139310331566
 10
-0.2127656444102861
 20
-0.9643908515764998
 10
-0.2320516348940025
 20
-0.9484360926990298
 10
-0.2358761788324948
 20
-0.9530591721556831
1001
AcDbBlockRepETag
1070
     1
1071
       68
1005
12AD9
  0
LWPOLYLINE
  5
12ADA
330
12854
100
AcDbEntity
  8
DEPA
100
AcDbPolyline
 90
        4
 70
     1
 43
0.0
 10
-0.2243983625531349
 20
-0.9804019145142497
 10
-0.2211834017832537
 20
-0.9753359469612341
 10
-0.2423169779924201
 20
-0.9619241716727806
 10
-0.2455319387622872
 20
-0.9669901392257962
1001
AcDbBlockRepETag
1070
     1
1071
       69
1005
12ADA
  0
LWPOLYLINE
  5
12ADB
330
12854
100
AcDbEntity
  8
DEPA
100
AcDbPolyline
 90
        4
 70
     1
 43
0.0
 10
-0.2307176741782335
 20
-0.9926787240654384
 10
-0.2281629984288465
 20
-0.9872497617506432
 10
-0.2508108712420416
 20
-0.9765924817593152
 10
-0.2533655469914287
 20
-0.9820214440741104
1001
AcDbBlockRepETag
1070
     1
1071
       70
1005
12ADB
  0
LWPOLYLINE
  5
12ADC
330
12854
100
AcDbEntity
  8
DEPA
100
AcDbPolyline
 90
        4
 70
     1
 43
0.0
 10
-0.2354484639047847
 20
-1.005650747066287
 10
-0.2335943619385254
 20
-0.9999444079685169
 10
-0.2573993608723093
 20
-0.9922096949461298
 10
-0.2592534628385685
 20
-0.9979160340439001
1001
AcDbBlockRepETag
1070
     1
1071
       71
1005
12ADC
  0
LWPOLYLINE
  5
12ADD
330
12854
100
AcDbEntity
  8
DEPA
100
AcDbPolyline
 90
        4
 70
     1
 43
0.0
 10
-0.2385161243527456
 20
-1.019113406964955
 10
-0.2373918364652319
 20
-1.013219683460583
 10
-0.2619785424660073
 20
-1.00852951845199
 10
-0.263102830353521
 20
-1.014423241956361
1001
AcDbBlockRepETag
1070
     1
1071
       72
1005
12ADD
  0
LWPOLYLINE
  5
12ADE
330
12854
100
AcDbEntity
  8
DEPA
100
AcDbPolyline
 90
        4
 70
     1
 43
0.0
 10
-0.2398722766843413
 20
-1.032854389572637
 10
-0.2394955335671618
 20
-1.026866229202067
 10
-0.2644761995939042
 20
-1.025294578911225
 10
-0.2648529427110837
 20
-1.031282739281795
1001
AcDbBlockRepETag
1070
     1
1071
       73
1005
12ADE
  0
LWPOLYLINE
  5
12ADF
330
12854
100
AcDbEntity
  8
DEPA
100
AcDbPolyline
 90
        4
 70
     1
 43
0.0
 10
-0.2394955335671618
 20
-1.046656991385166
 10
-0.2398722766843413
 20
-1.040668831014595
 10
-0.2648529427110837
 20
-1.042240481305444
 10
-0.2644761995939042
 20
-1.048228641676015
1001
AcDbBlockRepETag
1070
     1
1071
       74
1005
12ADF
  0
LWPOLYLINE
  5
12AE0
330
12854
100
AcDbEntity
  8
DEPA
100
AcDbPolyline
 90
        4
 70
     1
 43
0.0
 10
-0.2373918364652319
 20
-1.060303537126653
 10
-0.2385161243527527
 20
-1.054409813622275
 10
-0.263102830353521
 20
-1.059099978630872
 10
-0.2619785424660073
 20
-1.06499370213525
1001
AcDbBlockRepETag
1070
     1
1071
       75
1005
12AE0
  0
LWPOLYLINE
  5
12AE1
330
12854
100
AcDbEntity
  8
DEPA
100
AcDbPolyline
 90
        4
 70
     1
 43
0.0
 10
-0.2335943619385254
 20
-1.073578812618716
 10
-0.2354484639047705
 20
-1.067872473520946
 10
-0.2592534628385614
 20
-1.07560718654334
 10
-0.2573993608723093
 20
-1.08131352564111
1001
AcDbBlockRepETag
1070
     1
1071
       76
1005
12AE1
  0
LWPOLYLINE
  5
12AE2
330
12854
100
AcDbEntity
  8
DEPA
100
AcDbPolyline
 90
        4
 70
     1
 43
0.0
 10
-0.2281629984288394
 20
-1.086273458836576
 10
-0.2307176741782264
 20
-1.08084449652178
 10
-0.2533655469914287
 20
-1.091501776513116
 10
-0.2508108712420345
 20
-1.096930738827911
1001
AcDbBlockRepETag
1070
     1
1071
       77
1005
12AE2
  0
LWPOLYLINE
  5
12AE3
330
12854
100
AcDbEntity
  8
DEPA
100
AcDbPolyline
 90
        4
 70
     1
 43
0.0
 10
-0.2211834017832608
 20
-1.098187273625985
 10
-0.2243983625531278
 20
-1.093121306072976
 10
-0.2455319387622943
 20
-1.10653308136143
 10
-0.242316977992413
 20
-1.111599048914438
1001
AcDbBlockRepETag
1070
     1
1071
       78
1005
12AE3
  0
LWPOLYLINE
  5
12AE4
330
12854
100
AcDbEntity
  8
DEPA
100
AcDbPolyline
 90
        4
 70
     1
 43
0.0
 10
-0.212765644410279
 20
-1.109132369010726
 10
-0.2165901883487713
 20
-1.104509289554076
 10
-0.2358761788324948
 20
-1.120464048431546
 10
-0.2320516348940025
 20
-1.125087127888203
1001
AcDbBlockRepETag
1070
     1
1071
       79
1005
12AE4
  0
LWPOLYLINE
  5
12AE5
330
12854
100
AcDbEntity
  8
DEPA
100
AcDbPolyline
 90
        4
 70
     1
 43
0.0
 10
-0.2030424793722183
 20
-1.118936134298298
 10
-0.2074162911367416
 20
-1.114828851662725
 10
-0.2245505443041971
 20
-1.13307497805081
 10
-0.2201767325396737
 20
-1.137182260686383
1001
AcDbBlockRepETag
1070
     1
1071
       80
1005
12AE5
  0
LWPOLYLINE
  5
12AE6
330
12854
100
AcDbEntity
  8
DEPA
100
AcDbPolyline
 90
        4
 70
     1
 43
0.0
 10
-0.1921672467900599
 20
-1.127443958253639
 10
-0.197021348756305
 20
-1.123917246739882
 10
-0.2117336471995408
 20
-1.144166988325725
 10
-0.2068795452332885
 20
-1.147693699839482
1001
AcDbBlockRepETag
1070
     1
1071
       81
1005
12AE6
  0
LWPOLYLINE
  5
12AE7
330
12854
100
AcDbEntity
  8
DEPA
100
AcDbPolyline
 90
        4
 70
     1
 43
0.0
 10
-0.1803114555781526
 20
-1.134521667410641
 10
-0.1855692956584143
 20
-1.131631145366032
 10
-0.1976276176422793
 20
-1.153565151628217
 10
-0.1923697775620177
 20
-1.156455673672827
1001
AcDbBlockRepETag
1070
     1
1071
       82
1005
12AE7
  0
LWPOLYLINE
  5
12AE8
330
12854
100
AcDbEntity
  8
DEPA
100
AcDbPolyline
 90
        4
 70
     1
 43
0.0
 10
-0.1676620786462415
 20
-1.140057642067876
 10
-0.1732407375615672
 20
-1.137848894751773
 10
-0.1824549161450797
 20
-1.161121253308809
 10
-0.176876257229754
 20
-1.163330000624913
1001
AcDbBlockRepETag
1070
     1
1071
       83
1005
12AE8
  0
LWPOLYLINE
  5
12AE9
330
12854
100
AcDbEntity
  8
DEPA
100
AcDbPolyline
 90
        4
 70
     1
 43
0.0
 10
-0.1544186042248903
 20
-1.143964576597984
 10
-0.1602301031916617
 20
-1.142472437274992
 10
-0.1664548252742826
 20
-1.166716129130204
 10
-0.1606433263075111
 20
-1.168208268453195
1001
AcDbBlockRepETag
1070
     1
1071
       84
1005
12AE9
  0
LWPOLYLINE
  5
12AEA
330
12854
100
AcDbEntity
  8
DEPA
100
AcDbPolyline
 90
        4
 70
     1
 43
0.0
 10
-0.140789889817011
 20
-1.146180856309516
 10
-0.1467425780248952
 20
-1.145428856908129
 10
-0.1498796760209053
 20
-1.170261544558481
 10
-0.1439269878130212
 20
-1.171013543959865
1001
AcDbBlockRepETag
1070
     1
1071
       85
1005
12AEA
  0
LWPOLYLINE
  5
12AEB
330
12854
100
AcDbEntity
  8
DEPA
100
AcDbPolyline
 90
        4
 70
     1
 43
0.0
 10
-0.1269908683902123
 20
-1.146671529147486
 10
-0.1329908683902126
 20
-1.146671529147486
 10
-0.1329908683902126
 20
-1.171701586274394
 10
-0.1269908683902123
 20
-1.171701586274394
1001
AcDbBlockRepETag
1070
     1
1071
       86
1005
12AEB
  0
LWPOLYLINE
  5
12AEC
330
12854
100
AcDbEntity
  8
DEPA
100
AcDbPolyline
 90
        4
 70
     1
 43
0.0
 10
-0.1132391587555155
 20
-1.145428856908125
 10
-0.1191918469634068
 20
-1.146180856309509
 10
-0.1160547489673895
 20
-1.171013543959862
 10
-0.1101020607594982
 20
-1.170261544558474
1001
AcDbBlockRepETag
1070
     1
1071
       87
1005
12AEC
  0
LWPOLYLINE
  5
12AED
330
12854
100
AcDbEntity
  8
DEPA
100
AcDbPolyline
 90
        4
 70
     1
 43
0.0
 10
-0.099751633588749
 20
-1.142472437274992
 10
-0.1055631325555204
 20
-1.14396457659798
 10
-0.0993384104728996
 20
-1.168208268453192
 10
-0.0935269115061282
 20
-1.166716129130204
1001
AcDbBlockRepETag
1070
     1
1071
       88
1005
12AED
  0
LWPOLYLINE
  5
12AEE
330
12854
100
AcDbEntity
  8
DEPA
100
AcDbPolyline
 90
        4
 70
     1
 43
0.0
 10
-0.0867409992188719
 20
-1.137848894751773
 10
-0.0923196581341976
 20
-1.140057642067883
 10
-0.0831054795506852
 20
-1.16333000062492
 10
-0.0775268206353523
 20
-1.161121253308809
1001
AcDbBlockRepETag
1070
     1
1071
       89
1005
12AEE
  0
LWPOLYLINE
  5
12AEF
330
12854
100
AcDbEntity
  8
DEPA
100
AcDbPolyline
 90
        4
 70
     1
 43
0.0
 10
-0.0744124411220035
 20
-1.131631145366032
 10
-0.0796702812022723
 20
-1.134521667410641
 10
-0.0676119592184072
 20
-1.15645567367283
 10
-0.0623541191381456
 20
-1.153565151628221
1001
AcDbBlockRepETag
1070
     1
1071
       90
1005
12AEF
  0
LWPOLYLINE
  5
12AF0
330
12854
100
AcDbEntity
  8
DEPA
100
AcDbPolyline
 90
        4
 70
     1
 43
0.0
 10
-0.0629603880241341
 20
-1.123917246739885
 10
-0.0678144899903792
 20
-1.127443958253643
 10
-0.0531021915471435
 20
-1.147693699839489
 10
-0.0482480895808983
 20
-1.144166988325732
1001
AcDbBlockRepETag
1070
     1
1071
       91
1005
12AF0
  0
LWPOLYLINE
  5
12AF1
330
12854
100
AcDbEntity
  8
DEPA
100
AcDbPolyline
 90
        4
 70
     1
 43
0.0
 10
-0.0525654456436762
 20
-1.114828851662732
 10
-0.0569392574081995
 20
-1.118936134298305
 10
-0.0398050042407441
 20
-1.137182260686387
 10
-0.0354311924762207
 20
-1.133074978050814
1001
AcDbBlockRepETag
1070
     1
1071
       92
1005
12AF1
  0
LWPOLYLINE
  5
12AF2
330
12854
100
AcDbEntity
  8
DEPA
100
AcDbPolyline
 90
        4
 70
     1
 43
0.0
 10
-0.0433915484316394
 20
-1.104509289554076
 10
-0.0472160923701317
 20
-1.109132369010733
 10
-0.0279301018864224
 20
-1.125087127888203
 10
-0.0241055579479301
 20
-1.120464048431546
1001
AcDbBlockRepETag
1070
     1
1071
       93
1005
12AF2
  0
LWPOLYLINE
  5
12AF3
330
12854
100
AcDbEntity
  8
DEPA
100
AcDbPolyline
 90
        4
 70
     1
 43
0.0
 10
-0.0355833742273042
 20
-1.093121306072976
 10
-0.0387983349971783
 20
-1.098187273625988
 10
-0.017664758788019
 20
-1.111599048914442
 10
-0.0144497980181448
 20
-1.10653308136143
1001
AcDbBlockRepETag
1070
     1
1071
       94
1005
12AF3
  0
LWPOLYLINE
  5
12AF4
330
12854
100
AcDbEntity
  8
DEPA
100
AcDbPolyline
 90
        4
 70
     1
 43
0.0
 10
-0.0292640626021843
 20
-1.080844496521788
 10
-0.0318187383515714
 20
-1.086273458836586
 10
-0.0091708655383762
 20
-1.096930738827914
 10
-0.0066161897889891
 20
-1.091501776513119
1001
AcDbBlockRepETag
1070
     1
1071
       95
1005
12AF4
  0
LWPOLYLINE
  5
12AF5
330
12854
100
AcDbEntity
  8
DEPA
100
AcDbPolyline
 90
        4
 70
     1
 43
0.0
 10
-0.0245332728756402
 20
-1.067872473520946
 10
-0.0263873748418924
 20
-1.073578812618716
 10
-0.0025823759081085
 20
-1.081313525641107
 10
-0.0007282739418564
 20
-1.075607186543336
1001
AcDbBlockRepETag
1070
     1
1071
       96
1005
12AF5
  0
LWPOLYLINE
  5
12AF6
330
12854
100
AcDbEntity
  8
DEPA
100
AcDbPolyline
 90
        4
 70
     1
 43
0.0
 10
-0.0214656124276722
 20
-1.054409813622278
 10
-0.022589900315193
 20
-1.06030353712665
 10
0.0019968056855824
 20
-1.064993702135247
 10
0.0031210935730961
 20
-1.059099978630875
1001
AcDbBlockRepETag
1070
     1
1071
       97
1005
12AF6
  0
LWPOLYLINE
  5
12AF7
330
12854
100
AcDbEntity
  8
DEPA
100
AcDbPolyline
 90
        4
 70
     1
 43
0.0
 10
-0.0201094600960836
 20
-1.040668831014585
 10
-0.0204862032132631
 20
-1.046656991385155
 10
0.0044944628134864
 20
-1.048228641675997
 10
0.0048712059306588
 20
-1.042240481305427
1001
AcDbBlockRepETag
1070
     1
1071
       98
1005
12AF7
  0
LWPOLYLINE
  5
12AF8
330
12854
100
AcDbEntity
  8
DEPA
100
AcDbPolyline
 90
        4
 70
     1
 43
0.0
 10
-0.0204862032132631
 20
-1.02686622920207
 10
-0.0201094600960836
 20
-1.032854389572641
 10
0.0048712059306588
 20
-1.031282739281792
 10
0.0044944628134864
 20
-1.025294578911221
1001
AcDbBlockRepETag
1070
     1
1071
       99
1005
12AF8
  0
LWPOLYLINE
  5
12AF9
330
12854
100
AcDbEntity
  8
DEPA
100
AcDbPolyline
 90
        4
 70
     1
 43
0.0
 10
-0.022589900315193
 20
-1.013219683460576
 10
-0.0214656124276722
 20
-1.019113406964947
 10
0.0031210935730961
 20
-1.014423241956357
 10
0.0019968056855824
 20
-1.008529518451986
1001
AcDbBlockRepETag
1070
     1
1071
      100
1005
12AF9
  0
LWPOLYLINE
  5
12AFA
330
12854
100
AcDbEntity
  8
DEPA
100
AcDbPolyline
 90
        4
 70
     1
 43
0.0
 10
-0.0263873748418995
 20
-0.9999444079685133
 10
-0.0245332728756473
 20
-1.005650747066283
 10
-0.0007282739418635
 20
-0.9979160340438966
 10
-0.0025823759081156
 20
-0.9922096949461263
1001
AcDbBlockRepETag
1070
     1
1071
      101
1005
12AFA
  0
LWPOLYLINE
  5
12AFB
330
12854
100
AcDbEntity
  8
DEPA
100
AcDbPolyline
 90
        4
 70
     1
 43
0.0
 10
-0.0318187383515856
 20
-0.9872497617506397
 10
-0.0292640626021914
 20
-0.9926787240654419
 10
-0.0066161897889963
 20
-0.9820214440741139
 10
-0.0091708655383904
 20
-0.9765924817593116
1001
AcDbBlockRepETag
1070
     1
1071
      102
1005
12AFB
  0
LWPOLYLINE
  5
12AFC
330
12854
100
AcDbEntity
  8
DEPA
100
AcDbPolyline
 90
        4
 70
     1
 43
0.0
 10
-0.0387983349971641
 20
-0.9753359469612448
 10
-0.03558337422729
 20
-0.9804019145142532
 10
-0.0144497980181306
 20
-0.9669901392258068
 10
-0.0176647587880048
 20
-0.9619241716727913
1001
AcDbBlockRepETag
1070
     1
1071
      103
1005
12AFC
  0
LWPOLYLINE
  5
12AFD
330
12854
100
AcDbEntity
  8
DEPA
100
AcDbPolyline
 90
        4
 70
     1
 43
0.0
 10
-0.0472160923701459
 20
-0.9643908515765033
 10
-0.0433915484316536
 20
-0.9690139310331602
 10
-0.0241055579479301
 20
-0.9530591721556902
 10
-0.0279301018864224
 20
-0.9484360926990333
1001
AcDbBlockRepETag
1070
     1
1071
      104
1005
12AFD
  0
LWPOLYLINE
  5
12AFE
330
12854
100
AcDbEntity
  8
DEPA
100
AcDbPolyline
 90
        4
 70
     1
 43
0.0
 10
-0.0569392574082066
 20
-0.9545870862889245
 10
-0.0525654456436762
 20
-0.9586943689244975
 10
-0.0354311924762207
 20
-0.9404482425364122
 10
-0.0398050042407512
 20
-0.9363409599008392
1001
AcDbBlockRepETag
1070
     1
1071
      105
1005
12AFE
  0
LWPOLYLINE
  5
12AFF
330
12854
100
AcDbEntity
  8
DEPA
100
AcDbPolyline
 90
        4
 70
     1
 43
0.0
 10
-0.0678144899903721
 20
-0.9460792623335905
 10
-0.062960388024127
 20
-0.9496059738473476
 10
-0.0482480895808912
 20
-0.9293562322615045
 10
-0.0531021915471364
 20
-0.9258295207477473
1001
AcDbBlockRepETag
1070
     1
1071
      106
1005
12AFF
  0
LWPOLYLINE
  5
12B00
330
12854
100
AcDbEntity
  8
DEPA
100
AcDbPolyline
 90
        4
 70
     1
 43
0.0
 10
-0.0796702812022723
 20
-0.9390015531765882
 10
-0.0744124411220106
 20
-0.9418920752211974
 10
-0.0623541191381456
 20
-0.919958068959005
 10
-0.0676119592184072
 20
-0.9170675469143958
1001
AcDbBlockRepETag
1070
     1
1071
      107
1005
12B00
  0
LWPOLYLINE
  5
12B01
330
12854
100
AcDbEntity
  8
DEPA
100
AcDbPolyline
 90
        4
 70
     1
 43
0.0
 10
-0.0923196581341834
 20
-0.9334655785193533
 10
-0.0867409992188577
 20
-0.9356743258354569
 10
-0.0775268206353381
 20
-0.91240196727842
 10
-0.083105479550671
 20
-0.9101932199623092
1001
AcDbBlockRepETag
1070
     1
1071
      108
1005
12B01
  0
LWPOLYLINE
  5
12B02
330
12854
100
AcDbEntity
  8
DEPA
100
AcDbPolyline
 90
        4
 70
     1
 43
0.0
 10
-0.1055631325555275
 20
-0.9295586439892495
 10
-0.0997516335887561
 20
-0.9310507833122372
 10
-0.0935269115061353
 20
-0.9068070914570256
 10
-0.0993384104729067
 20
-0.905314952134038
1001
AcDbBlockRepETag
1070
     1
1071
      109
1005
12B02
  0
LWPOLYLINE
  5
12B03
330
12854
100
AcDbEntity
  8
DEPA
100
AcDbPolyline
 90
        4
 70
     1
 43
0.0
 10
-0.1191918469634139
 20
-0.9273423642777238
 10
-0.1132391587555297
 20
-0.9280943636791079
 10
-0.1101020607595124
 20
-0.9032616760287588
 10
-0.1160547489673966
 20
-0.9025096766273748
1001
AcDbBlockRepETag
1070
     1
1071
      110
1005
12B03
  0
LWPOLYLINE
  5
12B04
330
12854
100
AcDbEntity
  8
DEPA
100
AcDbPolyline
 90
        4
 70
     1
 43
0.0
 10
0.0846393993794301
 20
-0.6778265521282023
 10
0.0936393993794305
 20
-0.6778265521282023
 10
0.0936393993794305
 20
-0.6402814664378412
 10
0.0846393993794301
 20
-0.6402814664378412
1001
AcDbBlockRepETag
1070
     1
1071
      111
1005
12B04
  0
LWPOLYLINE
  5
12B05
330
12854
100
AcDbEntity
  8
DEPA
100
AcDbPolyline
 90
        4
 70
     1
 43
0.0
 10
0.0846393993794301
 20
-0.6328265521282077
 10
0.0936393993794305
 20
-0.6328265521282077
 10
0.0936393993794305
 20
-0.5952814664378466
 10
0.0846393993794301
 20
-0.5952814664378466
1001
AcDbBlockRepETag
1070
     1
1071
      112
1005
12B05
  0
LWPOLYLINE
  5
12B06
330
12854
100
AcDbEntity
  8
DEPA
100
AcDbPolyline
 90
        4
 70
     1
 43
0.0
 10
0.0846393993794301
 20
-0.587826552128206
 10
0.0936393993794305
 20
-0.587826552128206
 10
0.0936393993794305
 20
-0.5502814664378449
 10
0.0846393993794301
 20
-0.5502814664378449
1001
AcDbBlockRepETag
1070
     1
1071
      113
1005
12B06
  0
LWPOLYLINE
  5
12B07
330
12854
100
AcDbEntity
  8
DEPA
100
AcDbPolyline
 90
        4
 70
     1
 43
0.0
 10
0.0661626370220923
 20
-0.6812976744385182
 10
0.0748798854722459
 20
-0.6790594654540314
 10
0.0655428023483218
 20
-0.6426939276712176
 10
0.0568255538981681
 20
-0.6449321366556973
1001
AcDbBlockRepETag
1070
     1
1071
      114
1005
12B07
  0
LWPOLYLINE
  5
12B08
330
12854
100
AcDbEntity
  8
DEPA
100
AcDbPolyline
 90
        4
 70
     1
 43
0.0
 10
0.0491295891462791
 20
-0.6892547290043254
 10
0.0570163492666644
 20
-0.6849189459374117
 10
0.0389288662908776
 20
-0.6520179365441266
 10
0.031042106170478
 20
-0.6563537196110403
1001
AcDbBlockRepETag
1070
     1
1071
      115
1005
12B08
  0
LWPOLYLINE
  5
12B09
330
12854
100
AcDbEntity
  8
DEPA
100
AcDbPolyline
 90
        4
 70
     1
 43
0.0
 10
0.0346105047932106
 20
-0.7011977448232614
 10
0.0411712224400027
 20
-0.6950368208699019
 10
0.0154698426888196
 20
-0.6676676312877774
 10
0.0089091250420417
 20
-0.673828555241137
1001
AcDbBlockRepETag
1070
     1
1071
      116
1005
12B09
  0
LWPOLYLINE
  5
12B0A
330
12854
100
AcDbEntity
  8
DEPA
100
AcDbPolyline
 90
        4
 70
     1
 43
0.0
 10
0.0235176714302448
 20
-0.7163762982880684
 10
0.0283401125850453
 20
-0.7087773469585486
 10
-0.0033602517286901
 20
-0.6886596840258648
 10
-0.0081826928835049
 20
-0.6962586353553846
1001
AcDbBlockRepETag
1070
     1
1071
      117
1005
12B0A
  0
LWPOLYLINE
  5
12B0B
330
12854
100
AcDbEntity
  8
DEPA
100
AcDbPolyline
 90
        4
 70
     1
 43
0.0
 10
0.0165480925741441
 20
-0.7338366650617659
 10
0.0193292455235117
 20
-0.7252771564151104
 10
-0.016378252877157
 20
-0.7136750868815156
 10
-0.0191594058265245
 20
-0.7222345955281711
1001
AcDbBlockRepETag
1070
     1
1071
      118
1005
12B0B
  0
LWPOLYLINE
  5
12B0C
330
12854
100
AcDbEntity
  8
DEPA
100
AcDbPolyline
 90
        4
 70
     1
 43
0.0
 10
0.0141396924967872
 20
-0.7524817460851736
 10
0.0147048071725387
 20
-0.7434995055293215
 10
-0.0227661918675573
 20
-0.7411420300930587
 10
-0.023331306543323
 20
-0.7501242706489038
1001
AcDbBlockRepETag
1070
     1
1071
      119
1005
12B0C
  0
LWPOLYLINE
  5
12B0D
330
12854
100
AcDbEntity
  8
DEPA
100
AcDbPolyline
 90
        4
 70
     1
 43
0.0
 10
0.0164437998324907
 20
-0.7711400023458453
 10
0.0147573680012165
 20
-0.7622994170892739
 10
-0.0221226909999466
 20
-0.7693346646021766
 10
-0.0204362591686724
 20
-0.7781752498587409
1001
AcDbBlockRepETag
1070
     1
1071
      120
1005
12B0D
  0
LWPOLYLINE
  5
12B0E
330
12854
100
AcDbEntity
  8
DEPA
100
AcDbPolyline
 90
        4
 70
     1
 43
0.0
 10
0.0233156390434353
 20
-0.7886390669825972
 10
0.019483625419344
 20
-0.7804956235104044
 10
-0.0144881838004487
 20
-0.7964815434974
 10
-0.0106561701763575
 20
-0.8046249869695927
1001
AcDbBlockRepETag
1070
     1
1071
      121
1005
12B0E
  0
LWPOLYLINE
  5
12B0F
330
12854
100
AcDbEntity
  8
DEPA
100
AcDbPolyline
 90
        4
 70
     1
 43
0.0
 10
0.0343234271991442
 20
-0.803879409407294
 10
0.0285866112914057
 20
-0.7969447902223124
 10
-0.0003423744341653
 20
-0.8208769285385315
 10
0.0053944414735732
 20
-0.8278115477235061
1001
AcDbBlockRepETag
1070
     1
1071
      122
1005
12B0F
  0
LWPOLYLINE
  5
12B10
330
12854
100
AcDbEntity
  8
DEPA
100
AcDbPolyline
 90
        4
 70
     1
 43
0.0
 10
0.0487755044859917
 20
-0.8159034228552997
 10
0.0414943515366026
 20
-0.8106133555846639
 10
0.0194259038717668
 20
-0.8409879679634286
 10
0.0267070568211274
 20
-0.8462780352340644
1001
AcDbBlockRepETag
1070
     1
1071
      123
1005
12B10
  0
LWPOLYLINE
  5
12B11
330
12854
100
AcDbEntity
  8
DEPA
100
AcDbPolyline
 90
        4
 70
     1
 43
0.0
 10
0.0657637937370232
 20
-0.8239555943404539
 10
0.0573958053640134
 20
-0.8206424733662913
 10
0.0435745374887553
 20
-0.8555510112018467
 10
0.051942525861751
 20
-0.8588641321760164
1001
AcDbBlockRepETag
1070
     1
1071
      124
1005
12B11
  0
LWPOLYLINE
  5
12B12
330
12854
100
AcDbEntity
  8
DEPA
100
AcDbPolyline
 90
        4
 70
     1
 43
0.0
 10
0.0842208582600002
 20
-0.8275299763145369
 10
0.0752918259481739
 20
-0.8264019772124626
 10
0.0705861789541622
 20
-0.8636510086879809
 10
0.0795152112659885
 20
-0.8647790077900552
1001
AcDbBlockRepETag
1070
     1
1071
      125
1005
12B12
  0
LWPOLYLINE
  5
12B13
330
12854
100
AcDbEntity
  8
DEPA
100
AcDbPolyline
 90
        4
 70
     1
 43
0.0
 10
0.1029869728106725
 20
-0.8264019772124768
 10
0.0940579404988462
 20
-0.8275299763145511
 10
0.0987635874928721
 20
-0.8647790077900836
 10
0.1076926198046983
 20
-0.8636510086880022
1001
AcDbBlockRepETag
1070
     1
1071
      126
1005
12B13
  0
LWPOLYLINE
  5
12B14
330
12854
100
AcDbEntity
  8
DEPA
100
AcDbPolyline
 90
        4
 70
     1
 43
0.0
 10
0.1208829933948472
 20
-0.8206424733662984
 10
0.1125150050218515
 20
-0.8239555943404539
 10
0.1263362728971096
 20
-0.8588641321760164
 10
0.1347042612701195
 20
-0.8555510112018609
1001
AcDbBlockRepETag
1070
     1
1071
      127
1005
12B14
  0
LWPOLYLINE
  5
12B15
330
12854
100
AcDbEntity
  8
DEPA
100
AcDbPolyline
 90
        4
 70
     1
 43
0.0
 10
0.1367844472222295
 20
-0.810613355584671
 10
0.1295032942728547
 20
-0.8159034228553068
 10
0.1515717419377047
 20
-0.8462780352340715
 10
0.1588528948870795
 20
-0.8409879679634357
1001
AcDbBlockRepETag
1070
     1
1071
      128
1005
12B15
  0
LWPOLYLINE
  5
12B16
330
12854
100
AcDbEntity
  8
DEPA
100
AcDbPolyline
 90
        4
 70
     1
 43
0.0
 10
0.1496921874674548
 20
-0.7969447902223195
 10
0.1439553715597164
 20
-0.803879409407294
 10
0.1728843572853016
 20
-0.8278115477235061
 10
0.17862117319304
 20
-0.8208769285385315
1001
AcDbBlockRepETag
1070
     1
1071
      129
1005
12B16
  0
LWPOLYLINE
  5
12B17
330
12854
100
AcDbEntity
  8
DEPA
100
AcDbPolyline
 90
        4
 70
     1
 43
0.0
 10
0.1587951733395307
 20
-0.7804956235104115
 10
0.1549631597154395
 20
-0.7886390669826043
 10
0.1889349689352322
 20
-0.8046249869695998
 10
0.1927669825593234
 20
-0.7964815434974071
1001
AcDbBlockRepETag
1070
     1
1071
      130
1005
12B17
  0
LWPOLYLINE
  5
12B18
330
12854
100
AcDbEntity
  8
DEPA
100
AcDbPolyline
 90
        4
 70
     1
 43
0.0
 10
0.163521430757644
 20
-0.762299417089281
 10
0.1618349989263841
 20
-0.7711400023458524
 10
0.1987150579275472
 20
-0.778175249858748
 10
0.2004014897588071
 20
-0.7693346646021766
1001
AcDbBlockRepETag
1070
     1
1071
      131
1005
12B18
  0
LWPOLYLINE
  5
12B19
330
12854
100
AcDbEntity
  8
DEPA
100
AcDbPolyline
 90
        4
 70
     1
 43
0.0
 10
0.1635739915863219
 20
-0.7434995055293144
 10
0.1641391062620876
 20
-0.7524817460851736
 10
0.2016101053021977
 20
-0.7501242706488967
 10
0.201044990626432
 20
-0.7411420300930445
1001
AcDbBlockRepETag
1070
     1
1071
      132
1005
12B19
  0
LWPOLYLINE
  5
12B1A
330
12854
100
AcDbEntity
  8
DEPA
100
AcDbPolyline
 90
        4
 70
     1
 43
0.0
 10
0.1589495532353489
 20
-0.7252771564151033
 10
0.1617307061847164
 20
-0.7338366650617587
 10
0.1974382045853993
 20
-0.722234595528164
 10
0.1946570516360175
 20
-0.7136750868815085
1001
AcDbBlockRepETag
1070
     1
1071
      133
1005
12B1A
  0
LWPOLYLINE
  5
12B1B
330
12854
100
AcDbEntity
  8
DEPA
100
AcDbPolyline
 90
        4
 70
     1
 43
0.0
 10
0.1499386861738152
 20
-0.7087773469585486
 10
0.15476112732863
 20
-0.7163762982880755
 10
0.1864614916423655
 20
-0.6962586353553917
 10
0.1816390504875507
 20
-0.6886596840258719
1001
AcDbBlockRepETag
1070
     1
1071
      134
1005
12B1B
  0
LWPOLYLINE
  5
12B1C
330
12854
100
AcDbEntity
  8
DEPA
100
AcDbPolyline
 90
        4
 70
     1
 43
0.0
 10
0.1371075763188578
 20
-0.6950368208699019
 10
0.1436682939656642
 20
-0.7011977448232614
 10
0.1693696737168473
 20
-0.673828555241137
 10
0.162808956070041
 20
-0.6676676312877774
1001
AcDbBlockRepETag
1070
     1
1071
      135
1005
12B1C
  0
LWPOLYLINE
  5
12B1D
330
12854
100
AcDbEntity
  8
DEPA
100
AcDbPolyline
 90
        4
 70
     1
 43
0.0
 10
0.1212624494921961
 20
-0.6849189459374188
 10
0.1291492096125815
 20
-0.6892547290043325
 10
0.1472366925883684
 20
-0.6563537196110474
 10
0.139349932467983
 20
-0.6520179365441337
1001
AcDbBlockRepETag
1070
     1
1071
      136
1005
12B1D
  0
LWPOLYLINE
  5
12B1E
330
12854
100
AcDbEntity
  8
DEPA
100
AcDbPolyline
 90
        4
 70
     1
 43
0.0
 10
0.1033989132866289
 20
-0.6790594654540385
 10
0.1121161617367825
 20
-0.6812976744385253
 10
0.1214532448607066
 20
-0.6449321366557044
 10
0.112735996410553
 20
-0.6426939276712247
1001
AcDbBlockRepETag
1070
     1
1071
      137
1005
12B1E
  0
LWPOLYLINE
  5
12B1F
330
12854
100
AcDbEntity
  8
DEPA
100
AcDbPolyline
 90
        4
 70
     1
 43
0.0
 10
0.0633090157695087
 20
-0.6355563360613488
 10
0.0721643820668909
 20
-0.6339493240081638
 10
0.0654604481510752
 20
-0.5970076032909404
 10
0.056605081853693
 20
-0.5986146153441326
1001
AcDbBlockRepETag
1070
     1
1071
      138
1005
12B1F
  0
LWPOLYLINE
  5
12B20
330
12854
100
AcDbEntity
  8
DEPA
100
AcDbPolyline
 90
        4
 70
     1
 43
0.0
 10
0.042808841942108
 20
-0.6420509383058999
 10
0.0512349557778613
 20
-0.6388885648891716
 10
0.038042557898283
 20
-0.6037375464446982
 10
0.0296164440625297
 20
-0.6068999198614265
1001
AcDbBlockRepETag
1070
     1
1071
      139
1005
12B20
  0
LWPOLYLINE
  5
12B21
330
12854
100
AcDbEntity
  8
DEPA
100
AcDbPolyline
 90
        4
 70
     1
 43
0.0
 10
0.023797770351667
 20
-0.6521016170019465
 10
0.0315238094940789
 20
-0.6474855235052957
 10
0.0122669621733458
 20
-0.6152549899887277
 10
0.0045409230309197
 20
-0.6198710834853785
1001
AcDbBlockRepETag
1070
     1
1071
      140
1005
12B21
  0
LWPOLYLINE
  5
12B22
330
12854
100
AcDbEntity
  8
DEPA
100
AcDbPolyline
 90
        4
 70
     1
 43
0.0
 10
0.0068868324814311
 20
-0.6653853350664676
 10
0.0136644756754727
 20
-0.6594638865330112
 10
-0.0110378901689465
 20
-0.6311897538109364
 10
-0.0178155333629881
 20
-0.6371112023443928
1001
AcDbBlockRepETag
1070
     1
1071
      141
1005
12B22
  0
LWPOLYLINE
  5
12B23
330
12854
100
AcDbEntity
  8
DEPA
100
AcDbPolyline
 90
        4
 70
     1
 43
0.0
 10
-0.0073804402110618
 20
-0.6814751428710011
 10
-0.0017690319943391
 20
-0.6744386595287893
 10
-0.0311229619990137
 20
-0.6510296814909396
 10
-0.0367343702157506
 20
-0.6580661648331514
1001
AcDbBlockRepETag
1070
     1
1071
      142
1005
12B23
  0
LWPOLYLINE
  5
12B24
330
12854
100
AcDbEntity
  8
DEPA
100
AcDbPolyline
 90
        4
 70
     1
 43
0.0
 10
-0.0185454858423206
 20
-0.6998539007539435
 10
-0.0142806678800689
 20
-0.6919285409672398
 10
-0.0473427025821813
 20
-0.6741371014287126
 10
-0.0516075205444331
 20
-0.6820624612154163
1001
AcDbBlockRepETag
1070
     1
1071
      143
1005
12B24
  0
LWPOLYLINE
  5
12B25
330
12854
100
AcDbEntity
  8
DEPA
100
AcDbPolyline
 90
        4
 70
     1
 43
0.0
 10
-0.0262494506591331
 20
-0.7199309003148855
 10
-0.0234682977097656
 20
-0.7113713916682301
 10
-0.0591757961104342
 20
-0.6997693221346495
 10
-0.0619569490598018
 20
-0.708328830781305
1001
AcDbBlockRepETag
1070
     1
1071
      144
1005
12B25
  0
LWPOLYLINE
  5
12B26
330
12854
100
AcDbEntity
  8
DEPA
100
AcDbPolyline
 90
        4
 70
     1
 43
0.0
 10
-0.0302447228934533
 20
-0.7410608502685037
 10
-0.0290366235010957
 20
-0.7321423024125906
 10
-0.0662419172215145
 20
-0.7271025029449661
 10
-0.0674500166138721
 20
-0.7360210508008791
1001
AcDbBlockRepETag
1070
     1
1071
      145
1005
12B26
  0
LWPOLYLINE
  5
12B27
330
12854
100
AcDbEntity
  8
DEPA
100
AcDbPolyline
 90
        4
 70
     1
 43
0.0
 10
-0.0304028912083219
 20
-0.7625646166374836
 10
-0.0308066746814824
 20
-0.7535736790386097
 10
-0.0683139549688541
 20
-0.7552581329386002
 10
-0.0679101714956936
 20
-0.7642490705374812
1001
AcDbBlockRepETag
1070
     1
1071
      146
1005
12B27
  0
LWPOLYLINE
  5
12B28
330
12854
100
AcDbEntity
  8
DEPA
100
AcDbPolyline
 90
        4
 70
     1
 43
0.0
 10
-0.026718871943995
 20
-0.7837510506774166
 10
-0.0287215603495916
 20
-0.7749766994677785
 10
-0.0653253123543998
 20
-0.7833312670010813
 10
-0.0633226239487748
 20
-0.7921056182107194
1001
AcDbBlockRepETag
1070
     1
1071
      147
1005
12B28
  0
LWPOLYLINE
  5
12B29
330
12854
100
AcDbEntity
  8
DEPA
100
AcDbPolyline
 90
        4
 70
     1
 43
0.0
 10
-0.0193110725108134
 20
-0.803939202965985
 10
-0.0228482977957008
 20
-0.7956634530130274
 10
-0.0573720468108228
 20
-0.8104196115049333
 10
-0.0538348215259212
 20
-0.8186953614578911
1001
AcDbBlockRepETag
1070
     1
1071
      148
1005
12B29
  0
LWPOLYLINE
  5
12B2A
330
12854
100
AcDbEntity
  8
DEPA
100
AcDbPolyline
 90
        4
 70
     1
 43
0.0
 10
-0.0084175856777442
 20
-0.8224802096777708
 10
-0.0133756585108067
 20
-0.814969050394275
 10
-0.0447097828366729
 20
-0.8356525247694648
 10
-0.0397517100035962
 20
-0.8431636840529463
1001
AcDbBlockRepETag
1070
     1
1071
      149
1005
12B2A
  0
LWPOLYLINE
  5
12B2B
330
12854
100
AcDbEntity
  8
DEPA
100
AcDbPolyline
 90
        4
 70
     1
 43
0.0
 10
0.00561146292522
 20
-0.8387781476014382
 10
-0.0006081009156667
 20
-0.8322729938269901
 10
-0.0277454960146137
 20
-0.85821900020062
 10
-0.0215259321737271
 20
-0.8647241539750538
1001
AcDbBlockRepETag
1070
     1
1071
      150
1005
12B2B
  0
LWPOLYLINE
  5
12B2C
330
12854
100
AcDbEntity
  8
DEPA
100
AcDbPolyline
 90
        4
 70
     1
 43
0.0
 10
0.0223251681328272
 20
-0.8523091876021595
 10
0.0150440151834523
 20
-0.8470191203315309
 10
-0.0070244324813977
 20
-0.8773937327102956
 10
0.0002567204679771
 20
-0.8826837999809242
1001
AcDbBlockRepETag
1070
     1
1071
      151
1005
12B2C
  0
LWPOLYLINE
  5
12B2D
330
12854
100
AcDbEntity
  8
DEPA
100
AcDbPolyline
 90
        4
 70
     1
 43
0.0
 10
0.0411863377076465
 20
-0.8626384309209456
 10
0.0330776178965273
 20
-0.8587334772688919
 10
0.0167874157317023
 20
-0.8925604306186372
 10
0.0248961355428357
 20
-0.8964653842706979
1001
AcDbBlockRepETag
1070
     1
1071
      152
1005
12B2D
  0
LWPOLYLINE
  5
12B2E
330
12854
100
AcDbEntity
  8
DEPA
100
AcDbPolyline
 90
        4
 70
     1
 43
0.0
 10
0.0615887581405055
 20
-0.869433887178566
 10
0.0529130923942383
 20
-0.8670395555684606
 10
0.0429247162306474
 20
-0.9032316237756177
 10
0.0516003819769146
 20
-0.9056259553857231
1001
AcDbBlockRepETag
1070
     1
1071
      153
1005
12B2E
  0
LWPOLYLINE
  5
12B2F
330
12854
100
AcDbEntity
  8
DEPA
100
AcDbPolyline
 90
        4
 70
     1
 43
0.0
 10
0.0828766788515232
 20
-0.8724771448196051
 10
0.0739129102055678
 20
-0.8716703910394798
 10
0.0705473946715678
 20
-0.909064331252928
 10
0.0795111633175232
 20
-0.9098710850330604
1001
AcDbBlockRepETag
1070
     1
1071
      154
1005
12B2F
  0
LWPOLYLINE
  5
12B30
330
12854
100
AcDbEntity
  8
DEPA
100
AcDbPolyline
 90
        4
 70
     1
 43
0.0
 10
0.1043658885532928
 20
-0.8716703910394798
 10
0.0954021199073232
 20
-0.8724771448196051
 10
0.0987676354413232
 20
-0.9098710850330604
 10
0.1077314040872928
 20
-0.909064331252928
1001
AcDbBlockRepETag
1070
     1
1071
      155
1005
12B30
  0
LWPOLYLINE
  5
12B31
330
12854
100
AcDbEntity
  8
DEPA
100
AcDbPolyline
 90
        4
 70
     1
 43
0.0
 10
0.1253657063646223
 20
-0.867039555568482
 10
0.1166900406183693
 20
-0.8694338871785802
 10
0.1266784167819601
 20
-0.9056259553857231
 10
0.1353540825282131
 20
-0.9032316237756319
1001
AcDbBlockRepETag
1070
     1
1071
      156
1005
12B31
  0
LWPOLYLINE
  5
12B32
330
12854
100
AcDbEntity
  8
DEPA
100
AcDbPolyline
 90
        4
 70
     1
 43
0.0
 10
0.1452011808623475
 20
-0.8587334772688848
 10
0.1370924610512283
 20
-0.8626384309209456
 10
0.1533826632160533
 20
-0.8964653842706908
 10
0.1614913830271725
 20
-0.892560430618623
1001
AcDbBlockRepETag
1070
     1
1071
      157
1005
12B32
  0
LWPOLYLINE
  5
12B33
330
12854
100
AcDbEntity
  8
DEPA
100
AcDbPolyline
 90
        4
 70
     1
 43
0.0
 10
0.1632347835754082
 20
-0.847019120331538
 10
0.1559536306260192
 20
-0.8523091876021737
 10
0.1780220782908835
 20
-0.8826837999809384
 10
0.1853032312402583
 20
-0.8773937327103027
1001
AcDbBlockRepETag
1070
     1
1071
      158
1005
12B33
  0
LWPOLYLINE
  5
12B34
330
12854
100
AcDbEntity
  8
DEPA
100
AcDbPolyline
 90
        4
 70
     1
 43
0.0
 10
0.1788868996745272
 20
-0.8322729938269972
 10
0.1726673358336406
 20
-0.8387781476014453
 10
0.1998047309326019
 20
-0.864724153975068
 10
0.2060242947734743
 20
-0.85821900020062
1001
AcDbBlockRepETag
1070
     1
1071
      159
1005
12B34
  0
LWPOLYLINE
  5
12B35
330
12854
100
AcDbEntity
  8
DEPA
100
AcDbPolyline
 90
        4
 70
     1
 43
0.0
 10
0.1916544572696814
 20
-0.814969050394275
 10
0.1866963844366047
 20
-0.8224802096777636
 10
0.2180305087624568
 20
-0.8431636840529463
 10
0.2229885815955335
 20
-0.8356525247694506
1001
AcDbBlockRepETag
1070
     1
1071
      160
1005
12B35
  0
LWPOLYLINE
  5
12B36
330
12854
100
AcDbEntity
  8
DEPA
100
AcDbPolyline
 90
        4
 70
     1
 43
0.0
 10
0.2011270965545613
 20
-0.7956634530130345
 10
0.197589871269674
 20
-0.8039392029659921
 10
0.232113620284796
 20
-0.8186953614578982
 10
0.2356508455696691
 20
-0.8104196115049333
1001
AcDbBlockRepETag
1070
     1
1071
      161
1005
12B36
  0
LWPOLYLINE
  5
12B37
330
12854
100
AcDbEntity
  8
DEPA
100
AcDbPolyline
 90
        4
 70
     1
 43
0.0
 10
0.2070003591084664
 20
-0.7749766994677856
 10
0.2049976707028556
 20
-0.7837510506774237
 10
0.2416014227076495
 20
-0.7921056182107194
 10
0.2436041111132603
 20
-0.7833312670010813
1001
AcDbBlockRepETag
1070
     1
1071
      162
1005
12B37
  0
LWPOLYLINE
  5
12B38
330
12854
100
AcDbEntity
  8
DEPA
100
AcDbPolyline
 90
        4
 70
     1
 43
0.0
 10
0.2090854734403429
 20
-0.7535736790386239
 10
0.2086816899671966
 20
-0.7625646166374907
 10
0.2461889702545541
 20
-0.7642490705374954
 10
0.2465927537277146
 20
-0.7552581329386286
1001
AcDbBlockRepETag
1070
     1
1071
      163
1005
12B38
  0
LWPOLYLINE
  5
12B39
330
12854
100
AcDbEntity
  8
DEPA
100
AcDbPolyline
 90
        4
 70
     1
 43
0.0
 10
0.207315422259942
 20
-0.7321423024125764
 10
0.2085235216522996
 20
-0.7410608502684824
 10
0.2457288153727184
 20
-0.7360210508008649
 10
0.2445207159803751
 20
-0.7271025029449519
1001
AcDbBlockRepETag
1070
     1
1071
      164
1005
12B39
  0
LWPOLYLINE
  5
12B3A
330
12854
100
AcDbEntity
  8
DEPA
100
AcDbPolyline
 90
        4
 70
     1
 43
0.0
 10
0.2017470964686119
 20
-0.711371391668223
 10
0.2045282494179936
 20
-0.7199309003148784
 10
0.2402357478186623
 20
-0.7083288307812979
 10
0.2374545948692948
 20
-0.6997693221346424
1001
AcDbBlockRepETag
1070
     1
1071
      165
1005
12B3A
  0
LWPOLYLINE
  5
12B3B
330
12854
100
AcDbEntity
  8
DEPA
100
AcDbPolyline
 90
        4
 70
     1
 43
0.0
 10
0.1925594666389294
 20
-0.6919285409672327
 10
0.1968242846011812
 20
-0.6998539007539577
 10
0.2298863193032794
 20
-0.6820624612154234
 10
0.2256215013410276
 20
-0.6741371014287126
1001
AcDbBlockRepETag
1070
     1
1071
      166
1005
12B3B
  0
LWPOLYLINE
  5
12B3C
330
12854
100
AcDbEntity
  8
DEPA
100
AcDbPolyline
 90
        4
 70
     1
 43
0.0
 10
0.1800478307531996
 20
-0.6744386595287893
 10
0.1856592389699223
 20
-0.6814751428710011
 10
0.2150131689746111
 20
-0.6580661648331514
 10
0.2094017607578742
 20
-0.6510296814909396
1001
AcDbBlockRepETag
1070
     1
1071
      167
1005
12B3C
  0
LWPOLYLINE
  5
12B3D
330
12854
100
AcDbEntity
  8
DEPA
100
AcDbPolyline
 90
        4
 70
     1
 43
0.0
 10
0.1646143230834021
 20
-0.6594638865330112
 10
0.1713919662774295
 20
-0.6653853350664747
 10
0.1960943321218345
 20
-0.6371112023443999
 10
0.189316688927807
 20
-0.6311897538109506
1001
AcDbBlockRepETag
1070
     1
1071
      168
1005
12B3D
  0
LWPOLYLINE
  5
12B3E
330
12854
100
AcDbEntity
  8
DEPA
100
AcDbPolyline
 90
        4
 70
     1
 43
0.0
 10
0.1467549892647959
 20
-0.6474855235052957
 10
0.1544810284072078
 20
-0.6521016170019465
 10
0.1737378757279409
 20
-0.6198710834853856
 10
0.166011836585529
 20
-0.6152549899887277
1001
AcDbBlockRepETag
1070
     1
1071
      169
1005
12B3E
  0
LWPOLYLINE
  5
12B3F
330
12854
100
AcDbEntity
  8
DEPA
100
AcDbPolyline
 90
        4
 70
     1
 43
0.0
 10
0.1270438429809992
 20
-0.6388885648891716
 10
0.1354699568167526
 20
-0.6420509383058999
 10
0.1486623546963308
 20
-0.6068999198614194
 10
0.1402362408605633
 20
-0.6037375464446911
1001
AcDbBlockRepETag
1070
     1
1071
      170
1005
12B3F
  0
LWPOLYLINE
  5
12B40
330
12854
100
AcDbEntity
  8
DEPA
100
AcDbPolyline
 90
        4
 70
     1
 43
0.0
 10
0.1061144166919554
 20
-0.6339493240081638
 10
0.1149697829893519
 20
-0.6355563360613488
 10
0.1216737169051818
 20
-0.5986146153441326
 10
0.1128183506077853
 20
-0.5970076032909404
1001
AcDbBlockRepETag
1070
     1
1071
      171
1005
12B40
  0
LWPOLYLINE
  5
12B41
330
12854
100
AcDbEntity
  8
DEPA
100
AcDbPolyline
 90
        4
 70
     1
 43
0.0
 10
0.0640118349274026
 20
-0.5896905604872345
 10
0.0729408672392431
 20
-0.5885625613851602
 10
0.0682352202452172
 20
-0.5513135299096419
 10
0.0593061879333767
 20
-0.5524415290117233
1001
AcDbBlockRepETag
1070
     1
1071
      172
1005
12B41
  0
LWPOLYLINE
  5
12B42
330
12854
100
AcDbEntity
  8
DEPA
100
AcDbPolyline
 90
        4
 70
     1
 43
0.0
 10
0.0437805471772528
 20
-0.5941251899369391
 10
0.0524977956274206
 20
-0.5918869809524594
 10
0.0431607125034823
 20
-0.5555214431696456
 10
0.0344434640533287
 20
-0.5577596521541253
1001
AcDbBlockRepETag
1070
     1
1071
      173
1005
12B42
  0
LWPOLYLINE
  5
12B43
330
12854
100
AcDbEntity
  8
DEPA
100
AcDbPolyline
 90
        4
 70
     1
 43
0.0
 10
0.0242645956224159
 20
-0.6010605037217758
 10
0.0326325839953974
 20
-0.5977473827476203
 10
0.0188113161201251
 20
-0.5628388449120508
 10
0.0104433277471294
 20
-0.5661519658862133
1001
AcDbBlockRepETag
1070
     1
1071
      174
1005
12B43
  0
LWPOLYLINE
  5
12B44
330
12854
100
AcDbEntity
  8
DEPA
100
AcDbPolyline
 90
        4
 70
     1
 43
0.0
 10
0.0057717584771275
 20
-0.6103871278003794
 10
0.0136585185975271
 20
-0.6060513447334657
 10
-0.004428964378274
 20
-0.5731503353401806
 10
-0.0123157244986736
 20
-0.5774861184070943
1001
AcDbBlockRepETag
1070
     1
1071
      175
1005
12B44
  0
LWPOLYLINE
  5
12B45
330
12854
100
AcDbEntity
  8
DEPA
100
AcDbPolyline
 90
        4
 70
     1
 43
0.0
 10
-0.011406321169698
 20
-0.6219579757395906
 10
-0.0041251682203232
 20
-0.616667908468962
 10
-0.0261936158851732
 20
-0.5862932960901972
 10
-0.033474768834548
 20
-0.5915833633608259
1001
AcDbBlockRepETag
1070
     1
1071
      176
1005
12B45
  0
LWPOLYLINE
  5
12B46
330
12854
100
AcDbEntity
  8
DEPA
100
AcDbPolyline
 90
        4
 70
     1
 43
0.0
 10
-0.0269987347403706
 20
-0.6355905683553332
 10
-0.0204380170935785
 20
-0.6294296444019736
 10
-0.0461393968447617
 20
-0.6020604548198492
 10
-0.0527001144915538
 20
-0.6082213787732087
1001
AcDbBlockRepETag
1070
     1
1071
      177
1005
12B46
  0
LWPOLYLINE
  5
12B47
330
12854
100
AcDbEntity
  8
DEPA
100
AcDbPolyline
 90
        4
 70
     1
 43
0.0
 10
-0.0407595805584116
 20
-0.651069911518313
 10
-0.0350227646506731
 20
-0.6441352923333313
 10
-0.0639517503762583
 20
-0.6202031540171263
 10
-0.0696885662839968
 20
-0.627137773202108
1001
AcDbBlockRepETag
1070
     1
1071
      178
1005
12B47
  0
LWPOLYLINE
  5
12B48
330
12854
100
AcDbEntity
  8
DEPA
100
AcDbPolyline
 90
        4
 70
     1
 43
0.0
 10
-0.0524718418649535
 20
-0.6681518867399561
 10
-0.0476494007101245
 20
-0.6605529354104292
 10
-0.0793497650238742
 20
-0.6404352724777525
 10
-0.0841722061786747
 20
-0.6480342238072794
1001
AcDbBlockRepETag
1070
     1
1071
      179
1005
12B48
  0
LWPOLYLINE
  5
12B49
330
12854
100
AcDbEntity
  8
DEPA
100
AcDbPolyline
 90
        4
 70
     1
 43
0.0
 10
-0.0619508093025978
 20
-0.6865671010667356
 10
-0.0581187956785208
 20
-0.6784236575945429
 10
-0.0920906048983135
 20
-0.6624377376075543
 10
-0.0959226185223905
 20
-0.6705811810797471
1001
AcDbBlockRepETag
1070
     1
1071
      180
1005
12B49
  0
LWPOLYLINE
  5
12B4A
330
12854
100
AcDbEntity
  8
DEPA
100
AcDbPolyline
 90
        4
 70
     1
 43
0.0
 10
-0.0690469938924245
 20
-0.7060251355680123
 10
-0.0662658409430428
 20
-0.6974656269213569
 10
-0.1019733393437114
 20
-0.6858635573877763
 10
-0.1047544922931074
 20
-0.6944230660344318
1001
AcDbBlockRepETag
1070
     1
1071
      181
1005
12B4A
  0
LWPOLYLINE
  5
12B4B
330
12854
100
AcDbEntity
  8
DEPA
100
AcDbPolyline
 90
        4
 70
     1
 43
0.0
 10
-0.0736484845643695
 20
-0.7262191254160158
 10
-0.0719620527330953
 20
-0.7173785401594586
 10
-0.1088421117342584
 20
-0.710343292646563
 10
-0.1105285435655325
 20
-0.7191838779031272
1001
AcDbBlockRepETag
1070
     1
1071
      182
1005
12B4B
  0
LWPOLYLINE
  5
12B4C
330
12854
100
AcDbEntity
  8
DEPA
100
AcDbPolyline
 90
        4
 70
     1
 43
0.0
 10
-0.075682713061763
 20
-0.746830599327538
 10
-0.0751175983859973
 20
-0.7378483587716787
 10
-0.1125885974261074
 20
-0.735490883335423
 10
-0.1131537121018731
 20
-0.7444731238912752
1001
AcDbBlockRepETag
1070
     1
1071
      183
1005
12B4C
  0
LWPOLYLINE
  5
12B4D
330
12854
100
AcDbEntity
  8
DEPA
100
AcDbPolyline
 90
        4
 70
     1
 43
0.0
 10
-0.0751175983859973
 20
-0.7675345020463312
 10
-0.075682713061763
 20
-0.7585522614904719
 10
-0.1131537121018731
 20
-0.7609097369267488
 10
-0.1125885974261074
 20
-0.7698919774826081
1001
AcDbBlockRepETag
1070
     1
1071
      184
1005
12B4D
  0
LWPOLYLINE
  5
12B4E
330
12854
100
AcDbEntity
  8
DEPA
100
AcDbPolyline
 90
        4
 70
     1
 43
0.0
 10
-0.0719620527330953
 20
-0.7880043206585654
 10
-0.0736484845643837
 20
-0.7791637354019941
 10
-0.1105285435655325
 20
-0.7861989829148897
 10
-0.1088421117342584
 20
-0.795039568171454
1001
AcDbBlockRepETag
1070
     1
1071
      185
1005
12B4E
  0
LWPOLYLINE
  5
12B4F
330
12854
100
AcDbEntity
  8
DEPA
100
AcDbPolyline
 90
        4
 70
     1
 43
0.0
 10
-0.0662658409430428
 20
-0.8079172338966529
 10
-0.0690469938924103
 20
-0.7993577252499975
 10
-0.1047544922930932
 20
-0.8109597947835922
 10
-0.1019733393437114
 20
-0.8195193034302477
1001
AcDbBlockRepETag
1070
     1
1071
      186
1005
12B4F
  0
LWPOLYLINE
  5
12B50
330
12854
100
AcDbEntity
  8
DEPA
100
AcDbPolyline
 90
        4
 70
     1
 43
0.0
 10
-0.0581187956785065
 20
-0.8269592032234456
 10
-0.0619508093025836
 20
-0.8188157597512528
 10
-0.0959226185223905
 20
-0.8348016797382555
 10
-0.0920906048982993
 20
-0.8429451232104483
1001
AcDbBlockRepETag
1070
     1
1071
      187
1005
12B50
  0
LWPOLYLINE
  5
12B51
330
12854
100
AcDbEntity
  8
DEPA
100
AcDbPolyline
 90
        4
 70
     1
 43
0.0
 10
-0.0476494007101387
 20
-0.8448299254075593
 10
-0.0524718418649393
 20
-0.8372309740780465
 10
-0.0841722061786889
 20
-0.8573486370107232
 10
-0.0793497650238742
 20
-0.8649475883402359
1001
AcDbBlockRepETag
1070
     1
1071
      188
1005
12B51
  0
LWPOLYLINE
  5
12B52
330
12854
100
AcDbEntity
  8
DEPA
100
AcDbPolyline
 90
        4
 70
     1
 43
0.0
 10
-0.0350227646506731
 20
-0.8612475684846714
 10
-0.0407595805584116
 20
-0.8543129492996968
 10
-0.0696885662839968
 20
-0.8782450876159018
 10
-0.0639517503762583
 20
-0.8851797068008906
1001
AcDbBlockRepETag
1070
     1
1071
      189
1005
12B52
  0
LWPOLYLINE
  5
12B53
330
12854
100
AcDbEntity
  8
DEPA
100
AcDbPolyline
 90
        4
 70
     1
 43
0.0
 10
-0.0204380170935785
 20
-0.875953216416029
 10
-0.0269987347403564
 20
-0.8697922924626695
 10
-0.0527001144915396
 20
-0.897161482044801
 10
-0.0461393968447617
 20
-0.9033224059981606
1001
AcDbBlockRepETag
1070
     1
1071
      190
1005
12B53
  0
LWPOLYLINE
  5
12B54
330
12854
100
AcDbEntity
  8
DEPA
100
AcDbPolyline
 90
        4
 70
     1
 43
0.0
 10
-0.0041251682203374
 20
-0.8887149523490407
 10
-0.0114063211697122
 20
-0.8834248850784049
 10
-0.0334747688345623
 20
-0.9137994974571697
 10
-0.0261936158851874
 20
-0.9190895647278054
1001
AcDbBlockRepETag
1070
     1
1071
      191
1005
12B54
  0
LWPOLYLINE
  5
12B55
330
12854
100
AcDbEntity
  8
DEPA
100
AcDbPolyline
 90
        4
 70
     1
 43
0.0
 10
0.0136585185975271
 20
-0.899331516084544
 10
0.0057717584771275
 20
-0.8949957330176303
 10
-0.0123157244986736
 20
-0.9278967424109083
 10
-0.004428964378274
 20
-0.932232525477822
1001
AcDbBlockRepETag
1070
     1
1071
      192
1005
12B55
  0
LWPOLYLINE
  5
12B56
330
12854
100
AcDbEntity
  8
DEPA
100
AcDbPolyline
 90
        4
 70
     1
 43
0.0
 10
0.0326325839953832
 20
-0.9076354780703965
 10
0.0242645956224017
 20
-0.904322357096241
 10
0.0104433277471294
 20
-0.9392308949317964
 10
0.0188113161201251
 20
-0.9425440159059519
1001
AcDbBlockRepETag
1070
     1
1071
      193
1005
12B56
  0
LWPOLYLINE
  5
12B57
330
12854
100
AcDbEntity
  8
DEPA
100
AcDbPolyline
 90
        4
 70
     1
 43
0.0
 10
0.0524977956274206
 20
-0.9134958798655574
 10
0.0437805471772528
 20
-0.9112576708810706
 10
0.0344434640533287
 20
-0.9476232086638916
 10
0.0431607125034823
 20
-0.9498614176483712
1001
AcDbBlockRepETag
1070
     1
1071
      194
1005
12B57
  0
LWPOLYLINE
  5
12B58
330
12854
100
AcDbEntity
  8
DEPA
100
AcDbPolyline
 90
        4
 70
     1
 43
0.0
 10
0.0729408672392289
 20
-0.9168202994328567
 10
0.0640118349274026
 20
-0.9156923003307753
 10
0.0593061879333909
 20
-0.9529413318063078
 10
0.0682352202452172
 20
-0.954069330908382
1001
AcDbBlockRepETag
1070
     1
1071
      195
1005
12B58
  0
LWPOLYLINE
  5
12B59
330
12854
100
AcDbEntity
  8
DEPA
100
AcDbPolyline
 90
        4
 70
     1
 43
0.0
 10
0.0936393993794305
 20
-0.9175563086898108
 10
0.0846393993794301
 20
-0.9175563086898108
 10
0.0846393993794301
 20
-0.955101394380172
 10
0.0936393993794305
 20
-0.955101394380172
1001
AcDbBlockRepETag
1070
     1
1071
      196
1005
12B59
  0
LWPOLYLINE
  5
12B5A
330
12854
100
AcDbEntity
  8
DEPA
100
AcDbPolyline
 90
        4
 70
     1
 43
0.0
 10
0.1142669638314722
 20
-0.9156923003307682
 10
0.1053379315196459
 20
-0.9168202994328495
 10
0.1100435785136717
 20
-0.9540693309083749
 10
0.118972610825498
 20
-0.9529413318062935
1001
AcDbBlockRepETag
1070
     1
1071
      197
1005
12B5A
  0
LWPOLYLINE
  5
12B5B
330
12854
100
AcDbEntity
  8
DEPA
100
AcDbPolyline
 90
        4
 70
     1
 43
0.0
 10
0.134498251581622
 20
-0.9112576708810706
 10
0.1257810031314683
 20
-0.9134958798655503
 10
0.1351180862554067
 20
-0.9498614176483712
 10
0.1438353347055603
 20
-0.9476232086638916
1001
AcDbBlockRepETag
1070
     1
1071
      198
1005
12B5B
  0
LWPOLYLINE
  5
12B5C
330
12854
100
AcDbEntity
  8
DEPA
100
AcDbPolyline
 90
        4
 70
     1
 43
0.0
 10
0.1540142031364446
 20
-0.904322357096241
 10
0.145646214763449
 20
-0.9076354780704107
 10
0.1594674826387212
 20
-0.942544015905959
 10
0.1678354710117169
 20
-0.9392308949317964
1001
AcDbBlockRepETag
1070
     1
1071
      199
1005
12B5C
  0
LWPOLYLINE
  5
12B5D
330
12854
100
AcDbEntity
  8
DEPA
100
AcDbPolyline
 90
        4
 70
     1
 43
0.0
 10
0.1725070402817472
 20
-0.8949957330176303
 10
0.1646202801613477
 20
-0.899331516084544
 10
0.1827077631371345
 20
-0.9322325254778291
 10
0.1905945232575341
 20
-0.9278967424109154
1001
AcDbBlockRepETag
1070
     1
1071
      200
1005
12B5D
  0
LWPOLYLINE
  5
12B5E
330
12854
100
AcDbEntity
  8
DEPA
100
AcDbPolyline
 90
        4
 70
     1
 43
0.0
 10
0.1896851199285443
 20
-0.8834248850784121
 10
0.1824039669791837
 20
-0.8887149523490478
 10
0.2044724146440338
 20
-0.9190895647278196
 10
0.2117535675934086
 20
-0.9137994974571839
1001
AcDbBlockRepETag
1070
     1
1071
      201
1005
12B5E
  0
LWPOLYLINE
  5
12B5F
330
12854
100
AcDbEntity
  8
DEPA
100
AcDbPolyline
 90
        4
 70
     1
 43
0.0
 10
0.2052775334992312
 20
-0.8697922924626837
 10
0.1987168158524533
 20
-0.8759532164160432
 10
0.2244181956036364
 20
-0.9033224059981606
 10
0.2309789132504143
 20
-0.897161482044801
1001
AcDbBlockRepETag
1070
     1
1071
      202
1005
12B5F
  0
LWPOLYLINE
  5
12B60
330
12854
100
AcDbEntity
  8
DEPA
100
AcDbPolyline
 90
        4
 70
     1
 43
0.0
 10
0.2190383793172863
 20
-0.8543129492996968
 10
0.2133015634095479
 20
-0.8612475684846785
 10
0.2422305491351189
 20
-0.8851797068008906
 10
0.2479673650428573
 20
-0.8782450876159018
1001
AcDbBlockRepETag
1070
     1
1071
      203
1005
12B60
  0
LWPOLYLINE
  5
12B61
330
12854
100
AcDbEntity
  8
DEPA
100
AcDbPolyline
 90
        4
 70
     1
 43
0.0
 10
0.2307506406237998
 20
-0.8372309740780465
 10
0.225928199468985
 20
-0.8448299254075664
 10
0.2576285637827205
 20
-0.8649475883402431
 10
0.2624510049375353
 20
-0.8573486370107232
1001
AcDbBlockRepETag
1070
     1
1071
      204
1005
12B61
  0
LWPOLYLINE
  5
12B62
330
12854
100
AcDbEntity
  8
DEPA
100
AcDbPolyline
 90
        4
 70
     1
 43
0.0
 10
0.2402296080614725
 20
-0.818815759751267
 10
0.2363975944373955
 20
-0.8269592032234598
 10
0.2703694036571882
 20
-0.8429451232104554
 10
0.2742014172812652
 20
-0.8348016797382626
1001
AcDbBlockRepETag
1070
     1
1071
      205
1005
12B62
  0
LWPOLYLINE
  5
12B63
330
12854
100
AcDbEntity
  8
DEPA
100
AcDbPolyline
 90
        4
 70
     1
 43
0.0
 10
0.2473257926512851
 20
-0.7993577252499975
 10
0.2445446397019175
 20
-0.8079172338966529
 10
0.2802521381025862
 20
-0.8195193034302405
 10
0.2830332910519679
 20
-0.8109597947835851
1001
AcDbBlockRepETag
1070
     1
1071
      206
1005
12B63
  0
LWPOLYLINE
  5
12B64
330
12854
100
AcDbEntity
  8
DEPA
100
AcDbPolyline
 90
        4
 70
     1
 43
0.0
 10
0.2519272833232442
 20
-0.7791637354020012
 10
0.2502408514919558
 20
-0.7880043206585583
 10
0.2871209104931189
 20
-0.795039568171454
 10
0.2888073423243931
 20
-0.7861989829148968
1001
AcDbBlockRepETag
1070
     1
1071
      207
1005
12B64
  0
LWPOLYLINE
  5
12B65
330
12854
100
AcDbEntity
  8
DEPA
100
AcDbPolyline
 90
        4
 70
     1
 43
0.0
 10
0.2539615118206235
 20
-0.7585522614904577
 10
0.2533963971448578
 20
-0.7675345020463169
 10
0.2908673961849821
 20
-0.7698919774825797
 10
0.2914325108607336
 20
-0.7609097369267204
1001
AcDbBlockRepETag
1070
     1
1071
      208
1005
12B65
  0
LWPOLYLINE
  5
12B66
330
12854
100
AcDbEntity
  8
DEPA
100
AcDbPolyline
 90
        4
 70
     1
 43
0.0
 10
0.2533963971448578
 20
-0.7378483587716858
 10
0.2539615118206235
 20
-0.7468305993275451
 10
0.2914325108607336
 20
-0.7444731238912681
 10
0.2908673961849821
 20
-0.7354908833354159
1001
AcDbBlockRepETag
1070
     1
1071
      209
1005
12B66
  0
LWPOLYLINE
  5
12B67
330
12854
100
AcDbEntity
  8
DEPA
100
AcDbPolyline
 90
        4
 70
     1
 43
0.0
 10
0.2502408514919558
 20
-0.7173785401594444
 10
0.2519272833232442
 20
-0.7262191254160016
 10
0.2888073423243931
 20
-0.7191838779031201
 10
0.2871209104931189
 20
-0.710343292646563
1001
AcDbBlockRepETag
1070
     1
1071
      210
1005
12B67
  0
LWPOLYLINE
  5
12B68
330
12854
100
AcDbEntity
  8
DEPA
100
AcDbPolyline
 90
        4
 70
     1
 43
0.0
 10
0.2445446397019033
 20
-0.6974656269213498
 10
0.2473257926512851
 20
-0.7060251355680052
 10
0.2830332910519537
 20
-0.6944230660344246
 10
0.280252138102572
 20
-0.6858635573877692
1001
AcDbBlockRepETag
1070
     1
1071
      211
1005
12B68
  0
LWPOLYLINE
  5
12B69
330
12854
100
AcDbEntity
  8
DEPA
100
AcDbPolyline
 90
        4
 70
     1
 43
0.0
 10
0.2363975944373671
 20
-0.6784236575945429
 10
0.2402296080614583
 20
-0.6865671010667427
 10
0.274201417281251
 20
-0.6705811810797542
 10
0.2703694036571598
 20
-0.6624377376075472
1001
AcDbBlockRepETag
1070
     1
1071
      212
1005
12B69
  0
LWPOLYLINE
  5
12B6A
330
12854
100
AcDbEntity
  8
DEPA
100
AcDbPolyline
 90
        4
 70
     1
 43
0.0
 10
0.2259281994689992
 20
-0.6605529354104505
 10
0.230750640623814
 20
-0.6681518867399632
 10
0.2624510049375495
 20
-0.6480342238072936
 10
0.2576285637827489
 20
-0.6404352724777667
1001
AcDbBlockRepETag
1070
     1
1071
      213
1005
12B6A
  0
LWPOLYLINE
  5
12B6B
330
12854
100
AcDbEntity
  8
DEPA
100
AcDbPolyline
 90
        4
 70
     1
 43
0.0
 10
0.2133015634095337
 20
-0.6441352923333384
 10
0.2190383793172721
 20
-0.6510699115183201
 10
0.2479673650428573
 20
-0.6271377732021151
 10
0.2422305491351189
 20
-0.6202031540171334
1001
AcDbBlockRepETag
1070
     1
1071
      214
1005
12B6B
  0
LWPOLYLINE
  5
12B6C
330
12854
100
AcDbEntity
  8
DEPA
100
AcDbPolyline
 90
        4
 70
     1
 43
0.0
 10
0.198716815852439
 20
-0.6294296444019665
 10
0.2052775334992312
 20
-0.6355905683553261
 10
0.2309789132504143
 20
-0.6082213787732016
 10
0.2244181956036222
 20
-0.6020604548198421
1001
AcDbBlockRepETag
1070
     1
1071
      215
1005
12B6C
  0
LWPOLYLINE
  5
12B6D
330
12854
100
AcDbEntity
  8
DEPA
100
AcDbPolyline
 90
        4
 70
     1
 43
0.0
 10
0.1824039669791979
 20
-0.6166679084689691
 10
0.1896851199285585
 20
-0.6219579757396048
 10
0.2117535675934086
 20
-0.5915833633608401
 10
0.204472414644048
 20
-0.5862932960902043
1001
AcDbBlockRepETag
1070
     1
1071
      216
1005
12B6D
  0
LWPOLYLINE
  5
12B6E
330
12854
100
AcDbEntity
  8
DEPA
100
AcDbPolyline
 90
        4
 70
     1
 43
0.0
 10
0.1646202801613477
 20
-0.6060513447334657
 10
0.172507040281733
 20
-0.6103871278003794
 10
0.1905945232575341
 20
-0.5774861184070872
 10
0.1827077631371345
 20
-0.5731503353401735
1001
AcDbBlockRepETag
1070
     1
1071
      217
1005
12B6E
  0
LWPOLYLINE
  5
12B6F
330
12854
100
AcDbEntity
  8
DEPA
100
AcDbPolyline
 90
        4
 70
     1
 43
0.0
 10
0.1456462147634774
 20
-0.5977473827476132
 10
0.1540142031364589
 20
-0.6010605037217687
 10
0.1678354710117453
 20
-0.5661519658862133
 10
0.1594674826387497
 20
-0.5628388449120437
1001
AcDbBlockRepETag
1070
     1
1071
      218
1005
12B6F
  0
LWPOLYLINE
  5
12B70
330
12854
100
AcDbEntity
  8
DEPA
100
AcDbPolyline
 90
        4
 70
     1
 43
0.0
 10
0.1257810031314541
 20
-0.5918869809524594
 10
0.134498251581622
 20
-0.5941251899369391
 10
0.1438353347055461
 20
-0.5577596521541182
 10
0.1351180862553924
 20
-0.5555214431696385
1001
AcDbBlockRepETag
1070
     1
1071
      219
1005
12B70
  0
LWPOLYLINE
  5
12B71
330
12854
100
AcDbEntity
  8
DEPA
100
AcDbPolyline
 90
        4
 70
     1
 43
0.0
 10
0.1053379315196317
 20
-0.5885625613851673
 10
0.114266963831458
 20
-0.5896905604872416
 10
0.1189726108254838
 20
-0.5524415290117233
 10
0.1100435785136575
 20
-0.5513135299096419
1001
AcDbBlockRepETag
1070
     1
1071
      220
1005
12B71
  0
LWPOLYLINE
  5
12B72
330
12854
100
AcDbEntity
  8
DEPA
100
AcDbPolyline
 90
        4
 70
     1
 43
0.0
 10
-0.1493696524093799
 20
-0.418354590526004
 10
-0.1433696524093797
 20
-0.418354590526004
 10
-0.1433696524093797
 20
-0.3933245333990953
 10
-0.1493696524093799
 20
-0.3933245333990953
1001
AcDbBlockRepETag
1070
     1
1071
      221
1005
12B72
  0
LWPOLYLINE
  5
12B73
330
12854
100
AcDbEntity
  8
DEPA
100
AcDbPolyline
 90
        4
 70
     1
 43
0.0
 10
-0.1493696524093799
 20
-0.3883545905260064
 10
-0.1433696524093797
 20
-0.3883545905260064
 10
-0.1433696524093797
 20
-0.3633245333990978
 10
-0.1493696524093799
 20
-0.3633245333990978
1001
AcDbBlockRepETag
1070
     1
1071
      222
1005
12B73
  0
LWPOLYLINE
  5
12B74
330
12854
100
AcDbEntity
  8
DEPA
100
AcDbPolyline
 90
        4
 70
     1
 43
0.0
 10
-0.1493696524093799
 20
-0.3583545905260053
 10
-0.1433696524093797
 20
-0.3583545905260053
 10
-0.1433696524093797
 20
-0.3333245333990966
 10
-0.1493696524093799
 20
-0.3333245333990966
1001
AcDbBlockRepETag
1070
     1
1071
      223
1005
12B74
  0
LWPOLYLINE
  5
12B75
330
12854
100
AcDbEntity
  8
DEPA
100
AcDbPolyline
 90
        4
 70
     1
 43
0.0
 10
-0.1616874939809385
 20
-0.4206686720662099
 10
-0.155875995014167
 20
-0.4191765327432222
 10
-0.1621007170967879
 20
-0.3949328408880106
 10
-0.1679122160635593
 20
-0.3964249802109982
1001
AcDbBlockRepETag
1070
     1
1071
      224
1005
12B75
  0
LWPOLYLINE
  5
12B76
330
12854
100
AcDbEntity
  8
DEPA
100
AcDbPolyline
 90
        4
 70
     1
 43
0.0
 10
-0.173042859231483
 20
-0.4259733751100825
 10
-0.1677850191512213
 20
-0.4230828530654734
 10
-0.1798433411350864
 20
-0.4011488468032845
 10
-0.185101181215348
 20
-0.4040393688478936
1001
AcDbBlockRepETag
1070
     1
1071
      225
1005
12B76
  0
LWPOLYLINE
  5
12B77
330
12854
100
AcDbEntity
  8
DEPA
100
AcDbPolyline
 90
        4
 70
     1
 43
0.0
 10
-0.1827222488001929
 20
-0.4339353856560422
 10
-0.1783484370356625
 20
-0.4298281030204692
 10
-0.1954826902031179
 20
-0.4115819766323874
 10
-0.1998565019676413
 20
-0.4156892592679604
1001
AcDbBlockRepETag
1070
     1
1071
      226
1005
12B77
  0
LWPOLYLINE
  5
12B78
330
12854
100
AcDbEntity
  8
DEPA
100
AcDbPolyline
 90
        4
 70
     1
 43
0.0
 10
-0.1901174710421749
 20
-0.4440544212992457
 10
-0.1869025102723079
 20
-0.4389884537462301
 10
-0.2080360864814601
 20
-0.4255766784577766
 10
-0.2112510472513414
 20
-0.4306426460107922
1001
AcDbBlockRepETag
1070
     1
1071
      227
1005
12B78
  0
LWPOLYLINE
  5
12B79
330
12854
100
AcDbEntity
  8
DEPA
100
AcDbPolyline
 90
        4
 70
     1
 43
0.0
 10
-0.1947638569462349
 20
-0.4556946658150416
 10
-0.1929097549799898
 20
-0.4499883267172713
 10
-0.2167147539137737
 20
-0.4422536136948772
 10
-0.2185688558800187
 20
-0.4479599527926475
1001
AcDbBlockRepETag
1070
     1
1071
      228
1005
12B79
  0
LWPOLYLINE
  5
12B7A
330
12854
100
AcDbEntity
  8
DEPA
100
AcDbPolyline
 90
        4
 70
     1
 43
0.0
 10
-0.1963694569978109
 20
-0.4681247198306516
 10
-0.1959927138806385
 20
-0.4621365594600811
 10
-0.2209733799073739
 20
-0.4605649091692392
 10
-0.2213501230245534
 20
-0.4665530695398026
1001
AcDbBlockRepETag
1070
     1
1071
      229
1005
12B7A
  0
LWPOLYLINE
  5
12B7B
330
12854
100
AcDbEntity
  8
DEPA
100
AcDbPolyline
 90
        4
 70
     1
 43
0.0
 10
-0.1948333854406776
 20
-0.4805635573377636
 10
-0.1959576733281913
 20
-0.4746698338333851
 10
-0.2205443793289667
 20
-0.4793599988419821
 10
-0.219420091441453
 20
-0.4852537223463607
1001
AcDbBlockRepETag
1070
     1
1071
      230
1005
12B7B
  0
LWPOLYLINE
  5
12B7C
330
12854
100
AcDbEntity
  8
DEPA
100
AcDbPolyline
 90
        4
 70
     1
 43
0.0
 10
-0.1902521593000408
 20
-0.4922296004289315
 10
-0.192806835049435
 20
-0.4868006381141364
 10
-0.2154547078626301
 20
-0.4974579181054644
 10
-0.212900032113243
 20
-0.5028868804202596
1001
AcDbBlockRepETag
1070
     1
1071
      231
1005
12B7C
  0
LWPOLYLINE
  5
12B7D
330
12854
100
AcDbEntity
  8
DEPA
100
AcDbPolyline
 90
        4
 70
     1
 43
0.0
 10
-0.1829136338629063
 20
-0.5023898287120652
 10
-0.1867381778013985
 20
-0.4977667492554084
 10
-0.2060241682851149
 20
-0.5137215081328855
 10
-0.2021996243466226
 20
-0.5183445875895352
1001
AcDbBlockRepETag
1070
     1
1071
      232
1005
12B7D
  0
LWPOLYLINE
  5
12B7E
330
12854
100
AcDbEntity
  8
DEPA
100
AcDbPolyline
 90
        4
 70
     1
 43
0.0
 10
-0.1732789156716699
 20
-0.5104058376773999
 10
-0.1781330176379292
 20
-0.5068791261636428
 10
-0.1928453160811578
 20
-0.5271288677494859
 10
-0.1879912141149127
 20
-0.5306555792632431
1001
AcDbBlockRepETag
1070
     1
1071
      233
1005
12B7E
  0
LWPOLYLINE
  5
12B7F
330
12854
100
AcDbEntity
  8
DEPA
100
AcDbPolyline
 90
        4
 70
     1
 43
0.0
 10
-0.1619533895043226
 20
-0.5157739520008385
 10
-0.1675320484196554
 20
-0.5135652046847277
 10
-0.1767462270031679
 20
-0.5368375632417646
 10
-0.1711675680878351
 20
-0.5390463105578754
1001
AcDbBlockRepETag
1070
     1
1071
      234
1005
12B7F
  0
LWPOLYLINE
  5
12B80
330
12854
100
AcDbEntity
  8
DEPA
100
AcDbPolyline
 90
        4
 70
     1
 43
0.0
 10
-0.1496486798223309
 20
-0.5181568733168902
 10
-0.1556013680302151
 20
-0.5174048739155062
 10
-0.1587384660262252
 20
-0.5422375615658553
 10
-0.152785777818341
 20
-0.5429895609672393
1001
AcDbBlockRepETag
1070
     1
1071
      235
1005
12B80
  0
LWPOLYLINE
  5
12B81
330
12854
100
AcDbEntity
  8
DEPA
100
AcDbPolyline
 90
        4
 70
     1
 43
0.0
 10
-0.1371379367885517
 20
-0.5174048739155169
 10
-0.1430906249964359
 20
-0.5181568733169009
 10
-0.1399535270004186
 20
-0.5429895609672535
 10
-0.1340008387925344
 20
-0.5422375615658659
1001
AcDbBlockRepETag
1070
     1
1071
      236
1005
12B81
  0
LWPOLYLINE
  5
12B82
330
12854
100
AcDbEntity
  8
DEPA
100
AcDbPolyline
 90
        4
 70
     1
 43
0.0
 10
-0.1252072563991042
 20
-0.5135652046847313
 10
-0.1307859153144371
 20
-0.5157739520008385
 10
-0.1215717367309246
 20
-0.5390463105578789
 10
-0.1159930778155918
 20
-0.5368375632417717
1001
AcDbBlockRepETag
1070
     1
1071
      237
1005
12B82
  0
LWPOLYLINE
  5
12B83
330
12854
100
AcDbEntity
  8
DEPA
100
AcDbPolyline
 90
        4
 70
     1
 43
0.0
 10
-0.1146062871808517
 20
-0.5068791261636463
 10
-0.1194603891470969
 20
-0.5104058376774035
 10
-0.1047480907038611
 20
-0.5306555792632466
 10
-0.099893988737616
 20
-0.5271288677494895
1001
AcDbBlockRepETag
1070
     1
1071
      238
1005
12B83
  0
LWPOLYLINE
  5
12B84
330
12854
100
AcDbEntity
  8
DEPA
100
AcDbPolyline
 90
        4
 70
     1
 43
0.0
 10
-0.1060011270173611
 20
-0.4977667492554119
 10
-0.1098256709558534
 20
-0.5023898287120652
 10
-0.0905396804721299
 20
-0.5183445875895352
 10
-0.0867151365336376
 20
-0.5137215081328855
1001
AcDbBlockRepETag
1070
     1
1071
      239
1005
12B84
  0
LWPOLYLINE
  5
12B85
330
12854
100
AcDbEntity
  8
DEPA
100
AcDbPolyline
 90
        4
 70
     1
 43
0.0
 10
-0.0999324697693105
 20
-0.4868006381141435
 10
-0.1024871455187046
 20
-0.4922296004289386
 10
-0.0798392727055095
 20
-0.5028868804202667
 10
-0.0772845969561153
 20
-0.4974579181054715
1001
AcDbBlockRepETag
1070
     1
1071
      240
1005
12B85
  0
LWPOLYLINE
  5
12B86
330
12854
100
AcDbEntity
  8
DEPA
100
AcDbPolyline
 90
        4
 70
     1
 43
0.0
 10
-0.0967816314905683
 20
-0.4746698338333886
 10
-0.0979059193780749
 20
-0.4805635573377672
 10
-0.0733192133773066
 20
-0.4852537223463643
 10
-0.0721949254897929
 20
-0.4793599988419857
1001
AcDbBlockRepETag
1070
     1
1071
      241
1005
12B86
  0
LWPOLYLINE
  5
12B87
330
12854
100
AcDbEntity
  8
DEPA
100
AcDbPolyline
 90
        4
 70
     1
 43
0.0
 10
-0.0967465909381211
 20
-0.4621365594600775
 10
-0.0963698478209416
 20
-0.468124719830648
 10
-0.0713891817941992
 20
-0.4665530695397991
 10
-0.0717659249113787
 20
-0.4605649091692286
1001
AcDbBlockRepETag
1070
     1
1071
      242
1005
12B87
  0
LWPOLYLINE
  5
12B88
330
12854
100
AcDbEntity
  8
DEPA
100
AcDbPolyline
 90
        4
 70
     1
 43
0.0
 10
-0.0998295498387698
 20
-0.4499883267172678
 10
-0.0979754478725248
 20
-0.4556946658150381
 10
-0.0741704489387338
 20
-0.4479599527926439
 10
-0.076024550904986
 20
-0.4422536136948736
1001
AcDbBlockRepETag
1070
     1
1071
      243
1005
12B88
  0
LWPOLYLINE
  5
12B89
330
12854
100
AcDbEntity
  8
DEPA
100
AcDbPolyline
 90
        4
 70
     1
 43
0.0
 10
-0.1058367945464589
 20
-0.4389884537462337
 10
-0.1026218337765847
 20
-0.4440544212992493
 10
-0.0814882575674254
 20
-0.4306426460107958
 10
-0.0847032183372996
 20
-0.4255766784577802
1001
AcDbBlockRepETag
1070
     1
1071
      244
1005
12B89
  0
LWPOLYLINE
  5
12B8A
330
12854
100
AcDbEntity
  8
DEPA
100
AcDbPolyline
 90
        4
 70
     1
 43
0.0
 10
-0.1143908677830971
 20
-0.4298281030204692
 10
-0.1100170560185596
 20
-0.4339353856560422
 10
-0.0928828028511042
 20
-0.4156892592679569
 10
-0.0972566146156417
 20
-0.4115819766323839
1001
AcDbBlockRepETag
1070
     1
1071
      245
1005
12B8A
  0
LWPOLYLINE
  5
12B8B
330
12854
100
AcDbEntity
  8
DEPA
100
AcDbPolyline
 90
        4
 70
     1
 43
0.0
 10
-0.1249542856675383
 20
-0.4230828530654805
 10
-0.1196964455872767
 20
-0.4259733751100896
 10
-0.1076381236034187
 20
-0.4040393688478972
 10
-0.1128959636836804
 20
-0.401148846803288
1001
AcDbBlockRepETag
1070
     1
1071
      246
1005
12B8B
  0
LWPOLYLINE
  5
12B8C
330
12854
100
AcDbEntity
  8
DEPA
100
AcDbPolyline
 90
        4
 70
     1
 43
0.0
 10
-0.1368633098045855
 20
-0.4191765327432258
 10
-0.131051810837814
 20
-0.420668672066217
 10
-0.1248270887551932
 20
-0.3964249802110053
 10
-0.1306385877219647
 20
-0.3949328408880142
1001
AcDbBlockRepETag
1070
     1
1071
      247
1005
12B8C
  0
LWPOLYLINE
  5
12B8D
330
12854
100
AcDbEntity
  8
DEPA
100
AcDbPolyline
 90
        4
 70
     1
 43
0.0
 10
-0.1635899081493299
 20
-0.3901744464814349
 10
-0.1576863306177394
 20
-0.3891031051126426
 10
-0.1621556198949499
 20
-0.3644752913011615
 10
-0.1680591974265404
 20
-0.3655466326699539
1001
AcDbBlockRepETag
1070
     1
1071
      248
1005
12B8D
  0
LWPOLYLINE
  5
12B8E
330
12854
100
AcDbEntity
  8
DEPA
100
AcDbPolyline
 90
        4
 70
     1
 43
0.0
 10
-0.1772566907009327
 20
-0.3945041813111345
 10
-0.1716392814770948
 20
-0.3923959323666466
 10
-0.1804342133968113
 20
-0.3689619200703298
 10
-0.1860516226206492
 20
-0.3710701690148177
1001
AcDbBlockRepETag
1070
     1
1071
      249
1005
12B8E
  0
LWPOLYLINE
  5
12B8F
330
12854
100
AcDbEntity
  8
DEPA
100
AcDbPolyline
 90
        4
 70
     1
 43
0.0
 10
-0.1899307384278934
 20
-0.4012046337751656
 10
-0.1847800456662831
 20
-0.3981272381107317
 10
-0.1976179438801004
 20
-0.3766402157663506
 10
-0.2027686366417178
 20
-0.3797176114307845
1001
AcDbBlockRepETag
1070
     1
1071
      250
1005
12B8F
  0
LWPOLYLINE
  5
12B90
330
12854
100
AcDbEntity
  8
DEPA
100
AcDbPolyline
 90
        4
 70
     1
 43
0.0
 10
-0.2012046970080483
 20
-0.4100604458181785
 10
-0.1966862682120229
 20
-0.4061128134625385
 10
-0.2131545121083
 20
-0.3872633916478243
 10
-0.2176729409043254
 20
-0.3912110240034643
1001
AcDbBlockRepETag
1070
     1
1071
      251
1005
12B90
  0
LWPOLYLINE
  5
12B91
330
12854
100
AcDbEntity
  8
DEPA
100
AcDbPolyline
 90
        4
 70
     1
 43
0.0
 10
-0.2107162121363721
 20
-0.4207869843545354
 10
-0.2069752733252237
 20
-0.4160959954597275
 10
-0.2265445599950091
 20
-0.4004900101011586
 10
-0.2302854988061647
 20
-0.4051809989959665
1001
AcDbBlockRepETag
1070
     1
1071
      252
1005
12B91
  0
LWPOLYLINE
  5
12B92
330
12854
100
AcDbEntity
  8
DEPA
100
AcDbPolyline
 90
        4
 70
     1
 43
0.0
 10
-0.2181595758905495
 20
-0.4330394896098291
 10
-0.215316363915715
 20
-0.4277559164186933
 10
-0.2373577203837875
 20
-0.4158949567263406
 10
-0.240200932358622
 20
-0.42117852991748
1001
AcDbBlockRepETag
1070
     1
1071
      253
1005
12B92
  0
LWPOLYLINE
  5
12B93
330
12854
100
AcDbEntity
  8
DEPA
100
AcDbPolyline
 90
        4
 70
     1
 43
0.0
 10
-0.2232955524350864
 20
-0.4464241559837916
 10
-0.2214414504688413
 20
-0.4407178168860213
 10
-0.2452464494026252
 20
-0.4329831038636307
 10
-0.2471005513688702
 20
-0.438689442961401
1001
AcDbBlockRepETag
1070
     1
1071
      254
1005
12B93
  0
LWPOLYLINE
  5
12B94
330
12854
100
AcDbEntity
  8
DEPA
100
AcDbPolyline
 90
        4
 70
     1
 43
0.0
 10
-0.2259590672579712
 20
-0.4605107892862002
 10
-0.2251536676630614
 20
-0.4545650907155939
 10
-0.249957196810012
 20
-0.4512052244038465
 10
-0.2507625964049147
 20
-0.4571509229744529
1001
AcDbBlockRepETag
1070
     1
1071
      255
1005
12B94
  0
LWPOLYLINE
  5
12B95
330
12854
100
AcDbEntity
  8
DEPA
100
AcDbPolyline
 90
        4
 70
     1
 43
0.0
 10
-0.2260645128012193
 20
-0.4748466335321915
 10
-0.2263337017833216
 20
-0.4688526751329399
 10
-0.2513385553082337
 20
-0.4699756443996002
 10
-0.2510693663261314
 20
-0.4759696027988518
1001
AcDbBlockRepETag
1070
     1
1071
      256
1005
12B95
  0
LWPOLYLINE
  5
12B96
330
12854
100
AcDbEntity
  8
DEPA
100
AcDbPolyline
 90
        4
 70
     1
 43
0.0
 10
-0.2236084999583276
 20
-0.4889709228921469
 10
-0.2249436255620658
 20
-0.4831213554190548
 10
-0.2493461268985975
 20
-0.4886910671079186
 10
-0.2480110012948522
 20
-0.4945406345810106
1001
AcDbBlockRepETag
1070
     1
1071
      257
1005
12B96
  0
LWPOLYLINE
  5
12B97
330
12854
100
AcDbEntity
  8
DEPA
100
AcDbPolyline
 90
        4
 70
     1
 43
0.0
 10
-0.218669967002878
 20
-0.5024296910845259
 10
-0.2210281171927981
 20
-0.4969125244492183
 10
-0.2440439498695461
 20
-0.50674996344382
 10
-0.2416857996796189
 20
-0.5122671300791275
1001
AcDbBlockRepETag
1070
     1
1071
      258
1005
12B97
  0
LWPOLYLINE
  5
12B98
330
12854
100
AcDbEntity
  8
DEPA
100
AcDbPolyline
 90
        4
 70
     1
 43
0.0
 10
-0.2114076424474938
 20
-0.514790362225714
 10
-0.2147130243362092
 20
-0.5097829227033835
 10
-0.2356024405534463
 20
-0.5235719056201767
 10
-0.2322970586647308
 20
-0.5285793451425001
1001
AcDbBlockRepETag
1070
     1
1071
      259
1005
12B98
  0
LWPOLYLINE
  5
12B99
330
12854
100
AcDbEntity
  8
DEPA
100
AcDbPolyline
 90
        4
 70
     1
 43
0.0
 10
-0.202054943378851
 20
-0.5256556541748232
 10
-0.2062013192727754
 20
-0.5213188849918602
 10
-0.2242929160054068
 20
-0.5386162225742801
 10
-0.2201465401114895
 20
-0.542952991757236
1001
AcDbBlockRepETag
1070
     1
1071
      260
1005
12B99
  0
LWPOLYLINE
  5
12B9A
330
12854
100
AcDbEntity
  8
DEPA
100
AcDbPolyline
 90
        4
 70
     1
 43
0.0
 10
-0.1909124732404486
 20
-0.5346763475086398
 10
-0.1957665752067008
 20
-0.5311496359948898
 10
-0.2104788736499366
 20
-0.5513993775807329
 10
-0.2056247716836843
 20
-0.554926089094483
1001
AcDbBlockRepETag
1070
     1
1071
      261
1005
12B9A
  0
LWPOLYLINE
  5
12B9B
330
12854
100
AcDbEntity
  8
DEPA
100
AcDbPolyline
 90
        4
 70
     1
 43
0.0
 10
-0.178338360190569
 20
-0.5415625097211639
 10
-0.1837441733979794
 20
-0.5389592072864638
 10
-0.1946043081745294
 20
-0.5615105095196249
 10
-0.1891984949671119
 20
-0.5641138119543321
1001
AcDbBlockRepETag
1070
     1
1071
      262
1005
12B9B
  0
LWPOLYLINE
  5
12B9C
330
12854
100
AcDbEntity
  8
DEPA
100
AcDbPolyline
 90
        4
 70
     1
 43
0.0
 10
-0.1647367465686678
 20
-0.546092813892912
 10
-0.1705205237328435
 20
-0.5444965928195096
 10
-0.1771794411752374
 20
-0.5686246382909453
 10
-0.1713956640110616
 20
-0.5702208593643477
1001
AcDbBlockRepETag
1070
     1
1071
      263
1005
12B9C
  0
LWPOLYLINE
  5
12B9D
330
12854
100
AcDbEntity
  8
DEPA
100
AcDbPolyline
 90
        4
 70
     1
 43
0.0
 10
-0.1505447994279869
 20
-0.5481216523202726
 10
-0.1565206451919572
 20
-0.547583816466851
 10
-0.1587643222146262
 20
-0.5725131099424843
 10
-0.152788476450656
 20
-0.5730509457959059
1001
AcDbBlockRepETag
1070
     1
1071
      264
1005
12B9D
  0
LWPOLYLINE
  5
12B9E
330
12854
100
AcDbEntity
  8
DEPA
100
AcDbPolyline
 90
        4
 70
     1
 43
0.0
 10
-0.1362186596268096
 20
-0.547583816466851
 10
-0.1421945053907869
 20
-0.5481216523202726
 10
-0.1399508283681179
 20
-0.5730509457959059
 10
-0.1339749826041405
 20
-0.5725131099424843
1001
AcDbBlockRepETag
1070
     1
1071
      265
1005
12B9E
  0
LWPOLYLINE
  5
12B9F
330
12854
100
AcDbEntity
  8
DEPA
100
AcDbPolyline
 90
        4
 70
     1
 43
0.0
 10
-0.1222187810859161
 20
-0.5444965928195203
 10
-0.1280025582500919
 20
-0.5460928138929227
 10
-0.1213436408076909
 20
-0.5702208593643512
 10
-0.1155598636435222
 20
-0.5686246382909524
1001
AcDbBlockRepETag
1070
     1
1071
      266
1005
12B9F
  0
LWPOLYLINE
  5
12BA0
330
12854
100
AcDbEntity
  8
DEPA
100
AcDbPolyline
 90
        4
 70
     1
 43
0.0
 10
-0.108995131420766
 20
-0.5389592072864567
 10
-0.1144009446281835
 20
-0.5415625097211639
 10
-0.1035408098516335
 20
-0.564113811954325
 10
-0.098134996644216
 20
-0.5615105095196178
1001
AcDbBlockRepETag
1070
     1
1071
      267
1005
12BA0
  0
LWPOLYLINE
  5
12BA1
330
12854
100
AcDbEntity
  8
DEPA
100
AcDbPolyline
 90
        4
 70
     1
 43
0.0
 10
-0.096972729612066
 20
-0.5311496359948933
 10
-0.1018268315783182
 20
-0.5346763475086505
 10
-0.0871145331350754
 20
-0.5549260890944936
 10
-0.0822604311688302
 20
-0.5513993775807365
1001
AcDbBlockRepETag
1070
     1
1071
      268
1005
12BA1
  0
LWPOLYLINE
  5
12BA2
330
12854
100
AcDbEntity
  8
DEPA
100
AcDbPolyline
 90
        4
 70
     1
 43
0.0
 10
-0.0865379855459843
 20
-0.5213188849918673
 10
-0.0906843614399087
 20
-0.5256556541748303
 10
-0.0725927647072702
 20
-0.5429529917572467
 10
-0.0684463888133529
 20
-0.5386162225742801
1001
AcDbBlockRepETag
1070
     1
1071
      269
1005
12BA2
  0
LWPOLYLINE
  5
12BA3
330
12854
100
AcDbEntity
  8
DEPA
100
AcDbPolyline
 90
        4
 70
     1
 43
0.0
 10
-0.0780262804825434
 20
-0.5097829227033835
 10
-0.0813316623712659
 20
-0.5147903622257104
 10
-0.0604422461540288
 20
-0.5285793451425001
 10
-0.0571368642653134
 20
-0.5235719056201696
1001
AcDbBlockRepETag
1070
     1
1071
      270
1005
12BA3
  0
LWPOLYLINE
  5
12BA4
330
12854
100
AcDbEntity
  8
DEPA
100
AcDbPolyline
 90
        4
 70
     1
 43
0.0
 10
-0.0717111876259615
 20
-0.4969125244492219
 10
-0.0740693378158817
 20
-0.5024296910845294
 10
-0.0510535051391408
 20
-0.5122671300791311
 10
-0.0486953549492206
 20
-0.5067499634438235
1001
AcDbBlockRepETag
1070
     1
1071
      271
1005
12BA4
  0
LWPOLYLINE
  5
12BA5
330
12854
100
AcDbEntity
  8
DEPA
100
AcDbPolyline
 90
        4
 70
     1
 43
0.0
 10
-0.0677956792566938
 20
-0.4831213554190584
 10
-0.069130804860432
 20
-0.4889709228921504
 10
-0.0447283035239003
 20
-0.4945406345810106
 10
-0.0433931779201622
 20
-0.4886910671079186
1001
AcDbBlockRepETag
1070
     1
1071
      272
1005
12BA5
  0
LWPOLYLINE
  5
12BA6
330
12854
100
AcDbEntity
  8
DEPA
100
AcDbPolyline
 90
        4
 70
     1
 43
0.0
 10
-0.0664056030354381
 20
-0.4688526751329505
 10
-0.0666747920175404
 20
-0.4748466335321951
 10
-0.0416699384926282
 20
-0.4759696027988625
 10
-0.041400749510526
 20
-0.469975644399618
1001
AcDbBlockRepETag
1070
     1
1071
      273
1005
12BA6
  0
LWPOLYLINE
  5
12BA7
330
12854
100
AcDbEntity
  8
DEPA
100
AcDbPolyline
 90
        4
 70
     1
 43
0.0
 10
-0.0675856371557053
 20
-0.4545650907155832
 10
-0.0667802375608027
 20
-0.4605107892861895
 10
-0.041976708413852
 20
-0.4571509229744422
 10
-0.0427821080087547
 20
-0.4512052244038359
1001
AcDbBlockRepETag
1070
     1
1071
      274
1005
12BA7
  0
LWPOLYLINE
  5
12BA8
330
12854
100
AcDbEntity
  8
DEPA
100
AcDbPolyline
 90
        4
 70
     1
 43
0.0
 10
-0.0712978543499254
 20
-0.4407178168860142
 10
-0.0694437523836733
 20
-0.4464241559837845
 10
-0.0456387534498894
 20
-0.4386894429613975
 10
-0.0474928554161345
 20
-0.4329831038636272
1001
AcDbBlockRepETag
1070
     1
1071
      275
1005
12BA8
  0
LWPOLYLINE
  5
12BA9
330
12854
100
AcDbEntity
  8
DEPA
100
AcDbPolyline
 90
        4
 70
     1
 43
0.0
 10
-0.0774229409030518
 20
-0.4277559164186897
 10
-0.0745797289282102
 20
-0.4330394896098398
 10
-0.0525383724601447
 20
-0.4211785299174835
 10
-0.0553815844349792
 20
-0.4158949567263406
1001
AcDbBlockRepETag
1070
     1
1071
      276
1005
12BA9
  0
LWPOLYLINE
  5
12BAA
330
12854
100
AcDbEntity
  8
DEPA
100
AcDbPolyline
 90
        4
 70
     1
 43
0.0
 10
-0.085764031493536
 20
-0.4160959954597275
 10
-0.0820230926823875
 20
-0.4207869843545354
 10
-0.062453806012595
 20
-0.4051809989959665
 10
-0.0661947448237506
 20
-0.4004900101011586
1001
AcDbBlockRepETag
1070
     1
1071
      277
1005
12BAA
  0
LWPOLYLINE
  5
12BAB
330
12854
100
AcDbEntity
  8
DEPA
100
AcDbPolyline
 90
        4
 70
     1
 43
0.0
 10
-0.0960530366067367
 20
-0.4061128134625421
 10
-0.0915346078107113
 20
-0.4100604458181821
 10
-0.0750663639144413
 20
-0.3912110240034678
 10
-0.0795847927104596
 20
-0.387263391647835
1001
AcDbBlockRepETag
1070
     1
1071
      278
1005
12BAB
  0
LWPOLYLINE
  5
12BAC
330
12854
100
AcDbEntity
  8
DEPA
100
AcDbPolyline
 90
        4
 70
     1
 43
0.0
 10
-0.1079592591524694
 20
-0.3981272381107317
 10
-0.1028085663908591
 20
-0.4012046337751656
 10
-0.0899706681770418
 20
-0.3797176114307916
 10
-0.0951213609386521
 20
-0.3766402157663506
1001
AcDbBlockRepETag
1070
     1
1071
      279
1005
12BAC
  0
LWPOLYLINE
  5
12BAD
330
12854
100
AcDbEntity
  8
DEPA
100
AcDbPolyline
 90
        4
 70
     1
 43
0.0
 10
-0.1211000233416648
 20
-0.3923959323666466
 10
-0.115482614117834
 20
-0.3945041813111345
 10
-0.1066876821981175
 20
-0.3710701690148141
 10
-0.1123050914219554
 20
-0.3689619200703262
1001
AcDbBlockRepETag
1070
     1
1071
      280
1005
12BAD
  0
LWPOLYLINE
  5
12BAE
330
12854
100
AcDbEntity
  8
DEPA
100
AcDbPolyline
 90
        4
 70
     1
 43
0.0
 10
-0.1350529742010273
 20
-0.3891031051126426
 10
-0.1291493966694297
 20
-0.3901744464814349
 10
-0.1246801073922121
 20
-0.3655466326699539
 10
-0.1305836849238098
 20
-0.3644752913011615
1001
AcDbBlockRepETag
1070
     1
1071
      281
1005
12BAE
  0
LWPOLYLINE
  5
12BAF
330
12854
100
AcDbEntity
  8
DEPA
100
AcDbPolyline
 90
        4
 70
     1
 43
0.0
 10
-0.1631213620440626
 20
-0.3595972627653587
 10
-0.1571686738361713
 20
-0.3588452633639747
 10
-0.1603057718321885
 20
-0.3340125757136292
 10
-0.1662584600400798
 20
-0.3347645751150132
1001
AcDbBlockRepETag
1070
     1
1071
      282
1005
12BAF
  0
LWPOLYLINE
  5
12BB0
330
12854
100
AcDbEntity
  8
DEPA
100
AcDbPolyline
 90
        4
 70
     1
 43
0.0
 10
-0.1766088872108291
 20
-0.3625536823984952
 10
-0.1707973882440577
 20
-0.3610615430755075
 10
-0.1770221103266785
 20
-0.3368178512202959
 10
-0.1828336092934499
 20
-0.3383099905432836
1001
AcDbBlockRepETag
1070
     1
1071
      283
1005
12BB0
  0
LWPOLYLINE
  5
12BB1
330
12854
100
AcDbEntity
  8
DEPA
100
AcDbPolyline
 90
        4
 70
     1
 43
0.0
 10
-0.1896195215807275
 20
-0.3671772249217149
 10
-0.1840408626654017
 20
-0.3649684776056112
 10
-0.1932550412489213
 20
-0.3416961190485672
 10
-0.198833700164247
 20
-0.343904866364678
1001
AcDbBlockRepETag
1070
     1
1071
      284
1005
12BB1
  0
LWPOLYLINE
  5
12BB2
330
12854
100
AcDbEntity
  8
DEPA
100
AcDbPolyline
 90
        4
 70
     1
 43
0.0
 10
-0.2019480796775817
 20
-0.3733949743074518
 10
-0.19669023959732
 20
-0.3705044522628427
 10
-0.208748561581185
 20
-0.3485704460006538
 10
-0.2140064016614467
 20
-0.3514609680452629
1001
AcDbBlockRepETag
1070
     1
1071
      285
1005
12BB2
  0
LWPOLYLINE
  5
12BB3
330
12854
100
AcDbEntity
  8
DEPA
100
AcDbPolyline
 90
        4
 70
     1
 43
0.0
 10
-0.2134001327754653
 20
-0.381108872933595
 10
-0.2085460308092202
 20
-0.3775821614198414
 10
-0.2232583292524488
 20
-0.3573324198339982
 10
-0.2281124312187011
 20
-0.3608591313477518
1001
AcDbBlockRepETag
1070
     1
1071
      286
1005
12BB3
  0
LWPOLYLINE
  5
12BB4
330
12854
100
AcDbEntity
  8
DEPA
100
AcDbPolyline
 90
        4
 70
     1
 43
0.0
 10
-0.2237950751559161
 20
-0.3901972680107555
 10
-0.2194212633913857
 20
-0.3860899853751825
 10
-0.2365555165588411
 20
-0.3678438589871007
 10
-0.2409293283233715
 20
-0.3719511416226737
1001
AcDbBlockRepETag
1070
     1
1071
      287
1005
12BB4
  0
LWPOLYLINE
  5
12BB5
330
12854
100
AcDbEntity
  8
DEPA
100
AcDbPolyline
 90
        4
 70
     1
 43
0.0
 10
-0.2329689723679458
 20
-0.4005168301194111
 10
-0.2291444284294535
 20
-0.3958937506627542
 10
-0.2484304189131699
 20
-0.3799389917852842
 10
-0.2522549628516622
 20
-0.3845620712419375
1001
AcDbBlockRepETag
1070
     1
1071
      288
1005
12BB5
  0
LWPOLYLINE
  5
12BB6
330
12854
100
AcDbEntity
  8
DEPA
100
AcDbPolyline
 90
        4
 70
     1
 43
0.0
 10
-0.2407771465723023
 20
-0.4119048136005042
 10
-0.237562185802421
 20
-0.4068388460474886
 10
-0.2586957620115875
 20
-0.393427070759035
 10
-0.2619107227814545
 20
-0.3984930383120506
1001
AcDbBlockRepETag
1070
     1
1071
      289
1005
12BB6
  0
LWPOLYLINE
  5
12BB7
330
12854
100
AcDbEntity
  8
DEPA
100
AcDbPolyline
 90
        4
 70
     1
 43
0.0
 10
-0.2470964581974009
 20
-0.4241816231516929
 10
-0.2445417824480138
 20
-0.4187526608368977
 10
-0.267189655261209
 20
-0.4080953808455697
 10
-0.269744331010596
 20
-0.4135243431603648
1001
AcDbBlockRepETag
1070
     1
1071
      290
1005
12BB7
  0
LWPOLYLINE
  5
12BB8
330
12854
100
AcDbEntity
  8
DEPA
100
AcDbPolyline
 90
        4
 70
     1
 43
0.0
 10
-0.2518272479239521
 20
-0.4371536461525416
 10
-0.2499731459576928
 20
-0.4314473070547713
 10
-0.2737781448914767
 20
-0.4237125940323843
 10
-0.2756322468577359
 20
-0.4294189331301546
1001
AcDbBlockRepETag
1070
     1
1071
      291
1005
12BB8
  0
LWPOLYLINE
  5
12BB9
330
12854
100
AcDbEntity
  8
DEPA
100
AcDbPolyline
 90
        4
 70
     1
 43
0.0
 10
-0.254894908371913
 20
-0.4506163060512094
 10
-0.2537706204843992
 20
-0.444722582546838
 10
-0.2783573264851746
 20
-0.4400324175382444
 10
-0.2794816143726884
 20
-0.4459261410426159
1001
AcDbBlockRepETag
1070
     1
1071
      292
1005
12BB9
  0
LWPOLYLINE
  5
12BBA
330
12854
100
AcDbEntity
  8
DEPA
100
AcDbPolyline
 90
        4
 70
     1
 43
0.0
 10
-0.2562510607035087
 20
-0.4643572886588921
 10
-0.2558743175863292
 20
-0.4583691282883216
 10
-0.2808549836130716
 20
-0.4567974779974798
 10
-0.2812317267302511
 20
-0.4627856383680502
1001
AcDbBlockRepETag
1070
     1
1071
      293
1005
12BBA
  0
LWPOLYLINE
  5
12BBB
330
12854
100
AcDbEntity
  8
DEPA
100
AcDbPolyline
 90
        4
 70
     1
 43
0.0
 10
-0.2558743175863292
 20
-0.4781598904714209
 10
-0.2562510607035087
 20
-0.4721717301008504
 10
-0.2812317267302511
 20
-0.4737433803916993
 10
-0.2808549836130716
 20
-0.4797315407622698
1001
AcDbBlockRepETag
1070
     1
1071
      294
1005
12BBB
  0
LWPOLYLINE
  5
12BBC
330
12854
100
AcDbEntity
  8
DEPA
100
AcDbPolyline
 90
        4
 70
     1
 43
0.0
 10
-0.2537706204843992
 20
-0.491806436212908
 10
-0.2548949083719201
 20
-0.4859127127085295
 10
-0.2794816143726884
 20
-0.4906028777171266
 10
-0.2783573264851746
 20
-0.4964966012215051
1001
AcDbBlockRepETag
1070
     1
1071
      295
1005
12BBC
  0
LWPOLYLINE
  5
12BBD
330
12854
100
AcDbEntity
  8
DEPA
100
AcDbPolyline
 90
        4
 70
     1
 43
0.0
 10
-0.2499731459576928
 20
-0.5050817117049711
 10
-0.2518272479239378
 20
-0.4993753726072008
 10
-0.2756322468577288
 20
-0.507110085629595
 10
-0.2737781448914767
 20
-0.5128164247273653
1001
AcDbBlockRepETag
1070
     1
1071
      296
1005
12BBD
  0
LWPOLYLINE
  5
12BBE
330
12854
100
AcDbEntity
  8
DEPA
100
AcDbPolyline
 90
        4
 70
     1
 43
0.0
 10
-0.2445417824480067
 20
-0.5177763579228305
 10
-0.2470964581973938
 20
-0.5123473956080354
 10
-0.269744331010596
 20
-0.5230046755993705
 10
-0.2671896552612019
 20
-0.5284336379141657
1001
AcDbBlockRepETag
1070
     1
1071
      297
1005
12BBE
  0
LWPOLYLINE
  5
12BBF
330
12854
100
AcDbEntity
  8
DEPA
100
AcDbPolyline
 90
        4
 70
     1
 43
0.0
 10
-0.2375621858024282
 20
-0.5296901727122397
 10
-0.2407771465722952
 20
-0.5246242051592312
 10
-0.2619107227814617
 20
-0.5380359804476847
 10
-0.2586957620115804
 20
-0.5431019480006932
1001
AcDbBlockRepETag
1070
     1
1071
      298
1005
12BBF
  0
LWPOLYLINE
  5
12BC0
330
12854
100
AcDbEntity
  8
DEPA
100
AcDbPolyline
 90
        4
 70
     1
 43
0.0
 10
-0.2291444284294464
 20
-0.5406352680969811
 10
-0.2329689723679387
 20
-0.5360121886403313
 10
-0.2522549628516622
 20
-0.5519669475178013
 10
-0.2484304189131699
 20
-0.5565900269744582
1001
AcDbBlockRepETag
1070
     1
1071
      299
1005
12BC0
  0
LWPOLYLINE
  5
12BC1
330
12854
100
AcDbEntity
  8
DEPA
100
AcDbPolyline
 90
        4
 70
     1
 43
0.0
 10
-0.2194212633913857
 20
-0.5504390333845528
 10
-0.223795075155909
 20
-0.5463317507489798
 10
-0.2409293283233644
 20
-0.5645778771370651
 10
-0.2365555165588411
 20
-0.5686851597726382
1001
AcDbBlockRepETag
1070
     1
1071
      300
1005
12BC1
  0
LWPOLYLINE
  5
12BC2
330
12854
100
AcDbEntity
  8
DEPA
100
AcDbPolyline
 90
        4
 70
     1
 43
0.0
 10
-0.2085460308092273
 20
-0.5589468573398939
 10
-0.2134001327754724
 20
-0.5554201458261368
 10
-0.2281124312187082
 20
-0.5756698874119799
 10
-0.2232583292524559
 20
-0.5791965989257371
1001
AcDbBlockRepETag
1070
     1
1071
      301
1005
12BC2
  0
LWPOLYLINE
  5
12BC3
330
12854
100
AcDbEntity
  8
DEPA
100
AcDbPolyline
 90
        4
 70
     1
 43
0.0
 10
-0.19669023959732
 20
-0.5660245664968962
 10
-0.2019480796775817
 20
-0.563134044452287
 10
-0.2140064016614467
 20
-0.5850680507144724
 10
-0.208748561581185
 20
-0.5879585727590815
1001
AcDbBlockRepETag
1070
     1
1071
      302
1005
12BC3
  0
LWPOLYLINE
  5
12BC4
330
12854
100
AcDbEntity
  8
DEPA
100
AcDbPolyline
 90
        4
 70
     1
 43
0.0
 10
-0.1840408626654089
 20
-0.5715605411541312
 10
-0.1896195215807346
 20
-0.5693517938380275
 10
-0.198833700164247
 20
-0.5926241523950644
 10
-0.1932550412489213
 20
-0.5948328997111681
1001
AcDbBlockRepETag
1070
     1
1071
      303
1005
12BC4
  0
LWPOLYLINE
  5
12BC5
330
12854
100
AcDbEntity
  8
DEPA
100
AcDbPolyline
 90
        4
 70
     1
 43
0.0
 10
-0.1707973882440577
 20
-0.5754674756842384
 10
-0.1766088872108291
 20
-0.5739753363612472
 10
-0.1828336092934499
 20
-0.5982190282164588
 10
-0.1770221103266785
 20
-0.59971116753945
1001
AcDbBlockRepETag
1070
     1
1071
      304
1005
12BC5
  0
LWPOLYLINE
  5
12BC6
330
12854
100
AcDbEntity
  8
DEPA
100
AcDbPolyline
 90
        4
 70
     1
 43
0.0
 10
-0.1571686738361784
 20
-0.5776837553957713
 10
-0.1631213620440626
 20
-0.5769317559943837
 10
-0.1662584600400727
 20
-0.6017644436447363
 10
-0.1603057718321885
 20
-0.6025164430461203
1001
AcDbBlockRepETag
1070
     1
1071
      305
1005
12BC6
  0
LWPOLYLINE
  5
12BC7
330
12854
100
AcDbEntity
  8
DEPA
100
AcDbPolyline
 90
        4
 70
     1
 43
0.0
 10
-0.1433696524093797
 20
-0.5781744282337407
 10
-0.1493696524093799
 20
-0.5781744282337407
 10
-0.1493696524093799
 20
-0.6032044853606493
 10
-0.1433696524093797
 20
-0.6032044853606493
1001
AcDbBlockRepETag
1070
     1
1071
      306
1005
12BC7
  0
LWPOLYLINE
  5
12BC8
330
12854
100
AcDbEntity
  8
DEPA
100
AcDbPolyline
 90
        4
 70
     1
 43
0.0
 10
-0.1296179427746829
 20
-0.5769317559943801
 10
-0.1355706309825742
 20
-0.5776837553957641
 10
-0.1324335329865569
 20
-0.6025164430461168
 10
-0.1264808447786656
 20
-0.6017644436447292
1001
AcDbBlockRepETag
1070
     1
1071
      307
1005
12BC8
  0
LWPOLYLINE
  5
12BC9
330
12854
100
AcDbEntity
  8
DEPA
100
AcDbPolyline
 90
        4
 70
     1
 43
0.0
 10
-0.1161304176079163
 20
-0.5739753363612472
 10
-0.1219419165746878
 20
-0.5754674756842349
 10
-0.115717194492067
 20
-0.5997111675394465
 10
-0.1099056955252955
 20
-0.5982190282164588
1001
AcDbBlockRepETag
1070
     1
1071
      308
1005
12BC9
  0
LWPOLYLINE
  5
12BCA
330
12854
100
AcDbEntity
  8
DEPA
100
AcDbPolyline
 90
        4
 70
     1
 43
0.0
 10
-0.1031197832380393
 20
-0.5693517938380275
 10
-0.108698442153365
 20
-0.5715605411541383
 10
-0.0994842635698525
 20
-0.5948328997111752
 10
-0.0939056046545197
 20
-0.5926241523950644
1001
AcDbBlockRepETag
1070
     1
1071
      309
1005
12BCA
  0
LWPOLYLINE
  5
12BCB
330
12854
100
AcDbEntity
  8
DEPA
100
AcDbPolyline
 90
        4
 70
     1
 43
0.0
 10
-0.0907912251411709
 20
-0.563134044452287
 10
-0.0960490652214397
 20
-0.5660245664968962
 10
-0.0839907432375746
 20
-0.5879585727590851
 10
-0.078732903157313
 20
-0.5850680507144759
1001
AcDbBlockRepETag
1070
     1
1071
      310
1005
12BCB
  0
LWPOLYLINE
  5
12BCC
330
12854
100
AcDbEntity
  8
DEPA
100
AcDbPolyline
 90
        4
 70
     1
 43
0.0
 10
-0.0793391720433014
 20
-0.5554201458261403
 10
-0.0841932740095466
 20
-0.5589468573398975
 10
-0.0694809755663108
 20
-0.5791965989257442
 10
-0.0646268736000657
 20
-0.575669887411987
1001
AcDbBlockRepETag
1070
     1
1071
      311
1005
12BCC
  0
LWPOLYLINE
  5
12BCD
330
12854
100
AcDbEntity
  8
DEPA
100
AcDbPolyline
 90
        4
 70
     1
 43
0.0
 10
-0.0689442296628435
 20
-0.5463317507489869
 10
-0.0733180414273669
 20
-0.5504390333845599
 10
-0.0561837882599115
 20
-0.5686851597726417
 10
-0.0518099764953881
 20
-0.5645778771370687
1001
AcDbBlockRepETag
1070
     1
1071
      312
1005
12BCD
  0
LWPOLYLINE
  5
12BCE
330
12854
100
AcDbEntity
  8
DEPA
100
AcDbPolyline
 90
        4
 70
     1
 43
0.0
 10
-0.0597703324508068
 20
-0.5360121886403313
 10
-0.0635948763892991
 20
-0.5406352680969882
 10
-0.0443088859055898
 20
-0.5565900269744582
 10
-0.0404843419670975
 20
-0.5519669475178013
1001
AcDbBlockRepETag
1070
     1
1071
      313
1005
12BCE
  0
LWPOLYLINE
  5
12BCF
330
12854
100
AcDbEntity
  8
DEPA
100
AcDbPolyline
 90
        4
 70
     1
 43
0.0
 10
-0.0519621582464716
 20
-0.5246242051592312
 10
-0.0551771190163457
 20
-0.5296901727122432
 10
-0.0340435428071864
 20
-0.5431019480006967
 10
-0.0308285820373122
 20
-0.5380359804476847
1001
AcDbBlockRepETag
1070
     1
1071
      314
1005
12BCF
  0
LWPOLYLINE
  5
12BD0
330
12854
100
AcDbEntity
  8
DEPA
100
AcDbPolyline
 90
        4
 70
     1
 43
0.0
 10
-0.0456428466213517
 20
-0.5123473956080425
 10
-0.0481975223707387
 20
-0.5177763579228412
 10
-0.0255496495575436
 20
-0.5284336379141692
 10
-0.0229949738081565
 20
-0.5230046755993741
1001
AcDbBlockRepETag
1070
     1
1071
      315
1005
12BD0
  0
LWPOLYLINE
  5
12BD1
330
12854
100
AcDbEntity
  8
DEPA
100
AcDbPolyline
 90
        4
 70
     1
 43
0.0
 10
-0.0409120568948076
 20
-0.4993753726072008
 10
-0.0427661588610597
 20
-0.5050817117049711
 10
-0.0189611599272759
 20
-0.5128164247273617
 10
-0.0171070579610238
 20
-0.5071100856295914
1001
AcDbBlockRepETag
1070
     1
1071
      316
1005
12BD1
  0
LWPOLYLINE
  5
12BD2
330
12854
100
AcDbEntity
  8
DEPA
100
AcDbPolyline
 90
        4
 70
     1
 43
0.0
 10
-0.0378443964468396
 20
-0.485912712708533
 10
-0.0389686843343604
 20
-0.4918064362129045
 10
-0.014381978333585
 20
-0.4964966012215016
 10
-0.0132576904460713
 20
-0.4906028777171301
1001
AcDbBlockRepETag
1070
     1
1071
      317
1005
12BD2
  0
LWPOLYLINE
  5
12BD3
330
12854
100
AcDbEntity
  8
DEPA
100
AcDbPolyline
 90
        4
 70
     1
 43
0.0
 10
-0.036488244115251
 20
-0.4721717301008397
 10
-0.0368649872324305
 20
-0.4781598904714102
 10
-0.011884321205681
 20
-0.479731540762252
 10
-0.0115075780885086
 20
-0.4737433803916816
1001
AcDbBlockRepETag
1070
     1
1071
      318
1005
12BD3
  0
LWPOLYLINE
  5
12BD4
330
12854
100
AcDbEntity
  8
DEPA
100
AcDbPolyline
 90
        4
 70
     1
 43
0.0
 10
-0.0368649872324305
 20
-0.4583691282883251
 10
-0.036488244115251
 20
-0.4643572886588956
 10
-0.0115075780885086
 20
-0.4627856383680467
 10
-0.011884321205681
 20
-0.4567974779974762
1001
AcDbBlockRepETag
1070
     1
1071
      319
1005
12BD4
  0
LWPOLYLINE
  5
12BD5
330
12854
100
AcDbEntity
  8
DEPA
100
AcDbPolyline
 90
        4
 70
     1
 43
0.0
 10
-0.0389686843343604
 20
-0.4447225825468309
 10
-0.0378443964468396
 20
-0.4506163060512023
 10
-0.0132576904460713
 20
-0.4459261410426123
 10
-0.014381978333585
 20
-0.4400324175382409
1001
AcDbBlockRepETag
1070
     1
1071
      320
1005
12BD5
  0
LWPOLYLINE
  5
12BD6
330
12854
100
AcDbEntity
  8
DEPA
100
AcDbPolyline
 90
        4
 70
     1
 43
0.0
 10
-0.0427661588610668
 20
-0.4314473070547678
 10
-0.0409120568948147
 20
-0.4371536461525381
 10
-0.0171070579610309
 20
-0.429418933130151
 10
-0.018961159927283
 20
-0.4237125940323807
1001
AcDbBlockRepETag
1070
     1
1071
      321
1005
12BD6
  0
LWPOLYLINE
  5
12BD7
330
12854
100
AcDbEntity
  8
DEPA
100
AcDbPolyline
 90
        4
 70
     1
 43
0.0
 10
-0.0481975223707529
 20
-0.4187526608368941
 10
-0.0456428466213588
 20
-0.4241816231516964
 10
-0.0229949738081636
 20
-0.4135243431603684
 10
-0.0255496495575578
 20
-0.4080953808455661
1001
AcDbBlockRepETag
1070
     1
1071
      322
1005
12BD7
  0
LWPOLYLINE
  5
12BD8
330
12854
100
AcDbEntity
  8
DEPA
100
AcDbPolyline
 90
        4
 70
     1
 43
0.0
 10
-0.0551771190163315
 20
-0.4068388460474992
 10
-0.0519621582464573
 20
-0.4119048136005077
 10
-0.030828582037298
 20
-0.3984930383120613
 10
-0.0340435428071722
 20
-0.3934270707590457
1001
AcDbBlockRepETag
1070
     1
1071
      323
1005
12BD8
  0
LWPOLYLINE
  5
12BD9
330
12854
100
AcDbEntity
  8
DEPA
100
AcDbPolyline
 90
        4
 70
     1
 43
0.0
 10
-0.0635948763893133
 20
-0.3958937506627578
 10
-0.059770332450821
 20
-0.4005168301194147
 10
-0.0404843419670975
 20
-0.3845620712419446
 10
-0.0443088859055898
 20
-0.3799389917852878
1001
AcDbBlockRepETag
1070
     1
1071
      324
1005
12BD9
  0
LWPOLYLINE
  5
12BDA
330
12854
100
AcDbEntity
  8
DEPA
100
AcDbPolyline
 90
        4
 70
     1
 43
0.0
 10
-0.073318041427374
 20
-0.3860899853751789
 10
-0.0689442296628435
 20
-0.3901972680107519
 10
-0.0518099764953881
 20
-0.3719511416226666
 10
-0.0561837882599186
 20
-0.3678438589870936
1001
AcDbBlockRepETag
1070
     1
1071
      325
1005
12BDA
  0
LWPOLYLINE
  5
12BDB
330
12854
100
AcDbEntity
  8
DEPA
100
AcDbPolyline
 90
        4
 70
     1
 43
0.0
 10
-0.0841932740095395
 20
-0.3775821614198449
 10
-0.0793391720432943
 20
-0.3811088729336021
 10
-0.0646268736000586
 20
-0.3608591313477589
 10
-0.0694809755663037
 20
-0.3573324198340018
1001
AcDbBlockRepETag
1070
     1
1071
      326
1005
12BDB
  0
LWPOLYLINE
  5
12BDC
330
12854
100
AcDbEntity
  8
DEPA
100
AcDbPolyline
 90
        4
 70
     1
 43
0.0
 10
-0.0960490652214397
 20
-0.3705044522628427
 10
-0.090791225141178
 20
-0.3733949743074518
 10
-0.078732903157313
 20
-0.3514609680452594
 10
-0.0839907432375746
 20
-0.3485704460006502
1001
AcDbBlockRepETag
1070
     1
1071
      327
1005
12BDC
  0
LWPOLYLINE
  5
12BDD
330
12854
100
AcDbEntity
  8
DEPA
100
AcDbPolyline
 90
        4
 70
     1
 43
0.0
 10
-0.1086984421533508
 20
-0.3649684776056077
 10
-0.1031197832380251
 20
-0.3671772249217113
 10
-0.0939056046545055
 20
-0.3439048663646744
 10
-0.0994842635698383
 20
-0.3416961190485637
1001
AcDbBlockRepETag
1070
     1
1071
      328
1005
12BDD
  0
LWPOLYLINE
  5
12BDE
330
12854
100
AcDbEntity
  8
DEPA
100
AcDbPolyline
 90
        4
 70
     1
 43
0.0
 10
-0.1219419165746949
 20
-0.361061543075504
 10
-0.1161304176079234
 20
-0.3625536823984916
 10
-0.1099056955253026
 20
-0.33830999054328
 10
-0.1157171944920741
 20
-0.3368178512202924
1001
AcDbBlockRepETag
1070
     1
1071
      329
1005
12BDE
  0
LWPOLYLINE
  5
12BDF
330
12854
100
AcDbEntity
  8
DEPA
100
AcDbPolyline
 90
        4
 70
     1
 43
0.0
 10
-0.1355706309825813
 20
-0.3588452633639783
 10
-0.1296179427746971
 20
-0.3595972627653623
 10
-0.1264808447786798
 20
-0.3347645751150132
 10
-0.132433532986564
 20
-0.3340125757136292
1001
AcDbBlockRepETag
1070
     1
1071
      330
1005
12BDF
  0
LWPOLYLINE
  5
12BE0
330
12854
100
AcDbEntity
  8
DEPA
100
AcDbPolyline
 90
        4
 70
     1
 43
0.0
 10
0.1446258617915213
 20
-0.3212350026044639
 10
0.1506258617915215
 20
-0.3212350026044639
 10
0.1506258617915215
 20
-0.2962049454775553
 10
0.1446258617915213
 20
-0.2962049454775553
1001
AcDbBlockRepETag
1070
     1
1071
      331
1005
12BE0
  0
LWPOLYLINE
  5
12BE1
330
12854
100
AcDbEntity
  8
DEPA
100
AcDbPolyline
 90
        4
 70
     1
 43
0.0
 10
0.1446258617915213
 20
-0.2912350026044663
 10
0.1506258617915215
 20
-0.2912350026044663
 10
0.1506258617915215
 20
-0.2662049454775577
 10
0.1446258617915213
 20
-0.2662049454775577
1001
AcDbBlockRepETag
1070
     1
1071
      332
1005
12BE1
  0
LWPOLYLINE
  5
12BE2
330
12854
100
AcDbEntity
  8
DEPA
100
AcDbPolyline
 90
        4
 70
     1
 43
0.0
 10
0.1446258617915213
 20
-0.2612350026044652
 10
0.1506258617915215
 20
-0.2612350026044652
 10
0.1506258617915215
 20
-0.2362049454775565
 10
0.1446258617915213
 20
-0.2362049454775565
1001
AcDbBlockRepETag
1070
     1
1071
      333
1005
12BE2
  0
LWPOLYLINE
  5
12BE3
330
12854
100
AcDbEntity
  8
DEPA
100
AcDbPolyline
 90
        4
 70
     1
 43
0.0
 10
0.1323080202199627
 20
-0.3235490841446698
 10
0.1381195191867341
 20
-0.3220569448216821
 10
0.1318947971041133
 20
-0.2978132529664705
 10
0.1260832981373419
 20
-0.2993053922894582
1001
AcDbBlockRepETag
1070
     1
1071
      334
1005
12BE3
  0
LWPOLYLINE
  5
12BE4
330
12854
100
AcDbEntity
  8
DEPA
100
AcDbPolyline
 90
        4
 70
     1
 43
0.0
 10
0.1209526549694182
 20
-0.3288537871885424
 10
0.1262104950496798
 20
-0.3259632651439333
 10
0.1141521730658148
 20
-0.3040292588817444
 10
0.1088943329855532
 20
-0.3069197809263535
1001
AcDbBlockRepETag
1070
     1
1071
      335
1005
12BE4
  0
LWPOLYLINE
  5
12BE5
330
12854
100
AcDbEntity
  8
DEPA
100
AcDbPolyline
 90
        4
 70
     1
 43
0.0
 10
0.1112732654007082
 20
-0.3368157977345021
 10
0.1156470771652387
 20
-0.3327085150989291
 10
0.0985128239977833
 20
-0.3144623887108473
 10
0.09413901223326
 20
-0.3185696713464203
1001
AcDbBlockRepETag
1070
     1
1071
      336
1005
12BE5
  0
LWPOLYLINE
  5
12BE6
330
12854
100
AcDbEntity
  8
DEPA
100
AcDbPolyline
 90
        4
 70
     1
 43
0.0
 10
0.1038780431587263
 20
-0.3469348333777056
 10
0.1070930039285933
 20
-0.34186886582469
 10
0.0859594277194411
 20
-0.3284570905362365
 10
0.0827444669495599
 20
-0.3335230580892521
1001
AcDbBlockRepETag
1070
     1
1071
      337
1005
12BE6
  0
LWPOLYLINE
  5
12BE7
330
12854
100
AcDbEntity
  8
DEPA
100
AcDbPolyline
 90
        4
 70
     1
 43
0.0
 10
0.0992316572546663
 20
-0.3585750778935015
 10
0.1010857592209113
 20
-0.3528687387957312
 10
0.0772807602871275
 20
-0.3451340257733371
 10
0.0754266583208825
 20
-0.3508403648711074
1001
AcDbBlockRepETag
1070
     1
1071
      338
1005
12BE7
  0
LWPOLYLINE
  5
12BE8
330
12854
100
AcDbEntity
  8
DEPA
100
AcDbPolyline
 90
        4
 70
     1
 43
0.0
 10
0.0976260572030903
 20
-0.3710051319091114
 10
0.0980028003202627
 20
-0.365016971538541
 10
0.0730221342935273
 20
-0.3634453212476991
 10
0.0726453911763478
 20
-0.3694334816182625
1001
AcDbBlockRepETag
1070
     1
1071
      339
1005
12BE8
  0
LWPOLYLINE
  5
12BE9
330
12854
100
AcDbEntity
  8
DEPA
100
AcDbPolyline
 90
        4
 70
     1
 43
0.0
 10
0.0991621287602236
 20
-0.3834439694162235
 10
0.0980378408727099
 20
-0.3775502459118449
 10
0.0734511348719345
 20
-0.382240410920442
 10
0.0745754227594482
 20
-0.3881341344248206
1001
AcDbBlockRepETag
1070
     1
1071
      340
1005
12BE9
  0
LWPOLYLINE
  5
12BEA
330
12854
100
AcDbEntity
  8
DEPA
100
AcDbPolyline
 90
        4
 70
     1
 43
0.0
 10
0.1037433549008604
 20
-0.3951100125073914
 10
0.1011886791514662
 20
-0.3896810501925962
 10
0.0785408063382711
 20
-0.4003383301839243
 10
0.0810954820876582
 20
-0.4057672924987195
1001
AcDbBlockRepETag
1070
     1
1071
      341
1005
12BEA
  0
LWPOLYLINE
  5
12BEB
330
12854
100
AcDbEntity
  8
DEPA
100
AcDbPolyline
 90
        4
 70
     1
 43
0.0
 10
0.1110818803379949
 20
-0.4052702407905251
 10
0.1072573363995026
 20
-0.4006471613338683
 10
0.0879713459157863
 20
-0.4166019202113454
 10
0.0917958898542786
 20
-0.4212249996679951
1001
AcDbBlockRepETag
1070
     1
1071
      342
1005
12BEB
  0
LWPOLYLINE
  5
12BEC
330
12854
100
AcDbEntity
  8
DEPA
100
AcDbPolyline
 90
        4
 70
     1
 43
0.0
 10
0.1207165985292313
 20
-0.4132862497558599
 10
0.115862496562972
 20
-0.4097595382421027
 10
0.1011501981197433
 20
-0.4300092798279458
 10
0.1060043000859885
 20
-0.433535991341703
1001
AcDbBlockRepETag
1070
     1
1071
      343
1005
12BEC
  0
LWPOLYLINE
  5
12BED
330
12854
100
AcDbEntity
  8
DEPA
100
AcDbPolyline
 90
        4
 70
     1
 43
0.0
 10
0.1320421246965786
 20
-0.4186543640792984
 10
0.1264634657812458
 20
-0.4164456167631876
 10
0.1172492871977333
 20
-0.4397179753202245
 10
0.1228279461130661
 20
-0.4419267226363353
1001
AcDbBlockRepETag
1070
     1
1071
      344
1005
12BED
  0
LWPOLYLINE
  5
12BEE
330
12854
100
AcDbEntity
  8
DEPA
100
AcDbPolyline
 90
        4
 70
     1
 43
0.0
 10
0.1443468343785703
 20
-0.4210372853953502
 10
0.1383941461706861
 20
-0.4202852859939661
 10
0.135257048174676
 20
-0.4451179736443152
 10
0.1412097363825602
 20
-0.4458699730456992
1001
AcDbBlockRepETag
1070
     1
1071
      345
1005
12BEE
  0
LWPOLYLINE
  5
12BEF
330
12854
100
AcDbEntity
  8
DEPA
100
AcDbPolyline
 90
        4
 70
     1
 43
0.0
 10
0.1568575774123495
 20
-0.4202852859939768
 10
0.1509048892044653
 20
-0.4210372853953608
 10
0.1540419872004826
 20
-0.4458699730457134
 10
0.1599946754083668
 20
-0.4451179736443259
1001
AcDbBlockRepETag
1070
     1
1071
      346
1005
12BEF
  0
LWPOLYLINE
  5
12BF0
330
12854
100
AcDbEntity
  8
DEPA
100
AcDbPolyline
 90
        4
 70
     1
 43
0.0
 10
0.168788257801797
 20
-0.4164456167631912
 10
0.1632095988864641
 20
-0.4186543640792984
 10
0.1724237774699766
 20
-0.4419267226363388
 10
0.1780024363853094
 20
-0.4397179753202316
1001
AcDbBlockRepETag
1070
     1
1071
      347
1005
12BF0
  0
LWPOLYLINE
  5
12BF1
330
12854
100
AcDbEntity
  8
DEPA
100
AcDbPolyline
 90
        4
 70
     1
 43
0.0
 10
0.1793892270200494
 20
-0.4097595382421062
 10
0.1745351250538043
 20
-0.4132862497558634
 10
0.18924742349704
 20
-0.4335359913417065
 10
0.1941015254632852
 20
-0.4300092798279494
1001
AcDbBlockRepETag
1070
     1
1071
      348
1005
12BF1
  0
LWPOLYLINE
  5
12BF2
330
12854
100
AcDbEntity
  8
DEPA
100
AcDbPolyline
 90
        4
 70
     1
 43
0.0
 10
0.1879943871835401
 20
-0.4006471613338718
 10
0.1841698432450478
 20
-0.4052702407905251
 10
0.2034558337287713
 20
-0.4212249996679951
 10
0.2072803776672636
 20
-0.4166019202113454
1001
AcDbBlockRepETag
1070
     1
1071
      349
1005
12BF2
  0
LWPOLYLINE
  5
12BF3
330
12854
100
AcDbEntity
  8
DEPA
100
AcDbPolyline
 90
        4
 70
     1
 43
0.0
 10
0.1940630444315907
 20
-0.3896810501926033
 10
0.1915083686821965
 20
-0.3951100125073985
 10
0.2141562414953917
 20
-0.4057672924987266
 10
0.2167109172447859
 20
-0.4003383301839314
1001
AcDbBlockRepETag
1070
     1
1071
      350
1005
12BF3
  0
LWPOLYLINE
  5
12BF4
330
12854
100
AcDbEntity
  8
DEPA
100
AcDbPolyline
 90
        4
 70
     1
 43
0.0
 10
0.1972138827103329
 20
-0.3775502459118485
 10
0.1960895948228263
 20
-0.383443969416227
 10
0.2206763008235946
 20
-0.3881341344248241
 10
0.2218005887111083
 20
-0.3822404109204456
1001
AcDbBlockRepETag
1070
     1
1071
      351
1005
12BF4
  0
LWPOLYLINE
  5
12BF5
330
12854
100
AcDbEntity
  8
DEPA
100
AcDbPolyline
 90
        4
 70
     1
 43
0.0
 10
0.1972489232627801
 20
-0.3650169715385374
 10
0.1976256663799596
 20
-0.3710051319091079
 10
0.222606332406702
 20
-0.3694334816182589
 10
0.2222295892895225
 20
-0.3634453212476885
1001
AcDbBlockRepETag
1070
     1
1071
      352
1005
12BF5
  0
LWPOLYLINE
  5
12BF6
330
12854
100
AcDbEntity
  8
DEPA
100
AcDbPolyline
 90
        4
 70
     1
 43
0.0
 10
0.1941659643621314
 20
-0.3528687387957277
 10
0.1960200663283764
 20
-0.358575077893498
 10
0.2198250652621674
 20
-0.3508403648711038
 10
0.2179709632959152
 20
-0.3451340257733335
1001
AcDbBlockRepETag
1070
     1
1071
      353
1005
12BF6
  0
LWPOLYLINE
  5
12BF7
330
12854
100
AcDbEntity
  8
DEPA
100
AcDbPolyline
 90
        4
 70
     1
 43
0.0
 10
0.1881587196544423
 20
-0.3418688658246936
 10
0.1913736804243164
 20
-0.3469348333777091
 10
0.2125072566334758
 20
-0.3335230580892556
 10
0.2092922958636016
 20
-0.3284570905362401
1001
AcDbBlockRepETag
1070
     1
1071
      354
1005
12BF7
  0
LWPOLYLINE
  5
12BF8
330
12854
100
AcDbEntity
  8
DEPA
100
AcDbPolyline
 90
        4
 70
     1
 43
0.0
 10
0.179604646417804
 20
-0.3327085150989291
 10
0.1839784581823416
 20
-0.3368157977345021
 10
0.201112711349797
 20
-0.3185696713464168
 10
0.1967388995852595
 20
-0.3144623887108437
1001
AcDbBlockRepETag
1070
     1
1071
      355
1005
12BF8
  0
LWPOLYLINE
  5
12BF9
330
12854
100
AcDbEntity
  8
DEPA
100
AcDbPolyline
 90
        4
 70
     1
 43
0.0
 10
0.1690412285333629
 20
-0.3259632651439404
 10
0.1742990686136245
 20
-0.3288537871885495
 10
0.1863573905974824
 20
-0.3069197809263571
 10
0.1810995505172208
 20
-0.3040292588817479
1001
AcDbBlockRepETag
1070
     1
1071
      356
1005
12BF9
  0
LWPOLYLINE
  5
12BFA
330
12854
100
AcDbEntity
  8
DEPA
100
AcDbPolyline
 90
        4
 70
     1
 43
0.0
 10
0.1571322043963157
 20
-0.3220569448216857
 10
0.1629437033630872
 20
-0.3235490841446769
 10
0.169168425445708
 20
-0.2993053922894653
 10
0.1633569264789365
 20
-0.2978132529664741
1001
AcDbBlockRepETag
1070
     1
1071
      357
1005
12BFA
  0
LWPOLYLINE
  5
12BFB
330
12854
100
AcDbEntity
  8
DEPA
100
AcDbPolyline
 90
        4
 70
     1
 43
0.0
 10
0.1304056060515712
 20
-0.2930548585598949
 10
0.1363091835831618
 20
-0.2919835171911025
 10
0.1318398943059513
 20
-0.2673557033796214
 10
0.1259363167743608
 20
-0.2684270447484138
1001
AcDbBlockRepETag
1070
     1
1071
      358
1005
12BFB
  0
LWPOLYLINE
  5
12BFC
330
12854
100
AcDbEntity
  8
DEPA
100
AcDbPolyline
 90
        4
 70
     1
 43
0.0
 10
0.1167388234999684
 20
-0.2973845933895944
 10
0.1223562327238064
 20
-0.2952763444451065
 10
0.1135613008040899
 20
-0.2718423321487897
 10
0.107943891580252
 20
-0.2739505810932776
1001
AcDbBlockRepETag
1070
     1
1071
      359
1005
12BFC
  0
LWPOLYLINE
  5
12BFD
330
12854
100
AcDbEntity
  8
DEPA
100
AcDbPolyline
 90
        4
 70
     1
 43
0.0
 10
0.1040647757730078
 20
-0.3040850458536255
 10
0.109215468534618
 20
-0.3010076501891916
 10
0.0963775703208008
 20
-0.2795206278448106
 10
0.0912268775591834
 20
-0.2825980235092444
1001
AcDbBlockRepETag
1070
     1
1071
      360
1005
12BFD
  0
LWPOLYLINE
  5
12BFE
330
12854
100
AcDbEntity
  8
DEPA
100
AcDbPolyline
 90
        4
 70
     1
 43
0.0
 10
0.0927908171928529
 20
-0.3129408578966384
 10
0.0973092459888783
 20
-0.3089932255409984
 10
0.0808410020926012
 20
-0.2901438037262842
 10
0.0763225732965758
 20
-0.2940914360819242
1001
AcDbBlockRepETag
1070
     1
1071
      361
1005
12BFE
  0
LWPOLYLINE
  5
12BFF
330
12854
100
AcDbEntity
  8
DEPA
100
AcDbPolyline
 90
        4
 70
     1
 43
0.0
 10
0.0832793020645291
 20
-0.3236673964329952
 10
0.0870202408756775
 20
-0.3189764075381873
 10
0.0674509542058921
 20
-0.3033704221796185
 10
0.0637100153947365
 20
-0.3080614110744264
1001
AcDbBlockRepETag
1070
     1
1071
      362
1005
12BFF
  0
LWPOLYLINE
  5
12C00
330
12854
100
AcDbEntity
  8
DEPA
100
AcDbPolyline
 90
        4
 70
     1
 43
0.0
 10
0.0758359383103517
 20
-0.335919901688289
 10
0.0786791502851863
 20
-0.3306363284971532
 10
0.0566377938171137
 20
-0.3187753688048005
 10
0.0537945818422792
 20
-0.3240589419959399
1001
AcDbBlockRepETag
1070
     1
1071
      363
1005
12C00
  0
LWPOLYLINE
  5
12C01
330
12854
100
AcDbEntity
  8
DEPA
100
AcDbPolyline
 90
        4
 70
     1
 43
0.0
 10
0.0706999617658148
 20
-0.3493045680622515
 10
0.0725540637320599
 20
-0.3435982289644812
 10
0.048749064798276
 20
-0.3358635159420906
 10
0.046894962832031
 20
-0.3415698550398609
1001
AcDbBlockRepETag
1070
     1
1071
      364
1005
12C01
  0
LWPOLYLINE
  5
12C02
330
12854
100
AcDbEntity
  8
DEPA
100
AcDbPolyline
 90
        4
 70
     1
 43
0.0
 10
0.06803644694293
 20
-0.3633912013646601
 10
0.0688418465378398
 20
-0.3574455027940537
 10
0.0440383173908892
 20
-0.3540856364823064
 10
0.0432329177959865
 20
-0.3600313350529127
1001
AcDbBlockRepETag
1070
     1
1071
      365
1005
12C02
  0
LWPOLYLINE
  5
12C03
330
12854
100
AcDbEntity
  8
DEPA
100
AcDbPolyline
 90
        4
 70
     1
 43
0.0
 10
0.0679310013996819
 20
-0.3777270456106514
 10
0.0676618124175796
 20
-0.3717330872113997
 10
0.0426569588926675
 20
-0.3728560564780601
 10
0.0429261478747698
 20
-0.3788500148773117
1001
AcDbBlockRepETag
1070
     1
1071
      366
1005
12C03
  0
LWPOLYLINE
  5
12C04
330
12854
100
AcDbEntity
  8
DEPA
100
AcDbPolyline
 90
        4
 70
     1
 43
0.0
 10
0.0703870142425736
 20
-0.3918513349706067
 10
0.0690518886388354
 20
-0.3860017674975147
 10
0.0446493873023037
 20
-0.3915714791863785
 10
0.045984512906049
 20
-0.3974210466594705
1001
AcDbBlockRepETag
1070
     1
1071
      367
1005
12C04
  0
LWPOLYLINE
  5
12C05
330
12854
100
AcDbEntity
  8
DEPA
100
AcDbPolyline
 90
        4
 70
     1
 43
0.0
 10
0.0753255471980232
 20
-0.4053101031629858
 10
0.0729673970081031
 20
-0.3997929365276782
 10
0.0499515643313551
 20
-0.4096303755222799
 10
0.0523097145212823
 20
-0.4151475421575875
1001
AcDbBlockRepETag
1070
     1
1071
      368
1005
12C05
  0
LWPOLYLINE
  5
12C06
330
12854
100
AcDbEntity
  8
DEPA
100
AcDbPolyline
 90
        4
 70
     1
 43
0.0
 10
0.0825878717534074
 20
-0.4176707743041739
 10
0.079282489864692
 20
-0.4126633347818434
 10
0.058393073647455
 20
-0.4264523176986366
 10
0.0616984555361704
 20
-0.43145975722096
1001
AcDbBlockRepETag
1070
     1
1071
      369
1005
12C06
  0
LWPOLYLINE
  5
12C07
330
12854
100
AcDbEntity
  8
DEPA
100
AcDbPolyline
 90
        4
 70
     1
 43
0.0
 10
0.0919405708220502
 20
-0.4285360662532831
 10
0.0877941949281258
 20
-0.4241992970703202
 10
0.0697025981954944
 20
-0.4414966346527401
 10
0.0738489740894117
 20
-0.445833403835696
1001
AcDbBlockRepETag
1070
     1
1071
      370
1005
12C07
  0
LWPOLYLINE
  5
12C08
330
12854
100
AcDbEntity
  8
DEPA
100
AcDbPolyline
 90
        4
 70
     1
 43
0.0
 10
0.1030830409604526
 20
-0.4375567595870998
 10
0.0982289389942004
 20
-0.4340300480733497
 10
0.0835166405509647
 20
-0.4542797896591928
 10
0.0883707425172169
 20
-0.4578065011729429
1001
AcDbBlockRepETag
1070
     1
1071
      371
1005
12C08
  0
LWPOLYLINE
  5
12C09
330
12854
100
AcDbEntity
  8
DEPA
100
AcDbPolyline
 90
        4
 70
     1
 43
0.0
 10
0.1156571540103322
 20
-0.4444429217996238
 10
0.1102513408029218
 20
-0.4418396193649237
 10
0.0993912060263718
 20
-0.4643909215980849
 10
0.1047970192337893
 20
-0.466994224032792
1001
AcDbBlockRepETag
1070
     1
1071
      372
1005
12C09
  0
LWPOLYLINE
  5
12C0A
330
12854
100
AcDbEntity
  8
DEPA
100
AcDbPolyline
 90
        4
 70
     1
 43
0.0
 10
0.1292587676322334
 20
-0.4489732259713719
 10
0.1234749904680576
 20
-0.4473770048979695
 10
0.1168160730256638
 20
-0.4715050503694052
 10
0.1225998501898395
 20
-0.4731012714428076
1001
AcDbBlockRepETag
1070
     1
1071
      373
1005
12C0A
  0
LWPOLYLINE
  5
12C0B
330
12854
100
AcDbEntity
  8
DEPA
100
AcDbPolyline
 90
        4
 70
     1
 43
0.0
 10
0.1434507147729143
 20
-0.4510020643987325
 10
0.137474869008944
 20
-0.4504642285453109
 10
0.135231191986275
 20
-0.4753935220209442
 10
0.1412070377502452
 20
-0.4759313578743658
1001
AcDbBlockRepETag
1070
     1
1071
      374
1005
12C0B
  0
LWPOLYLINE
  5
12C0C
330
12854
100
AcDbEntity
  8
DEPA
100
AcDbPolyline
 90
        4
 70
     1
 43
0.0
 10
0.1577768545740916
 20
-0.4504642285453109
 10
0.1518010088101143
 20
-0.4510020643987325
 10
0.1540446858327833
 20
-0.4759313578743658
 10
0.1600205315967607
 20
-0.4753935220209442
1001
AcDbBlockRepETag
1070
     1
1071
      375
1005
12C0C
  0
LWPOLYLINE
  5
12C0D
330
12854
100
AcDbEntity
  8
DEPA
100
AcDbPolyline
 90
        4
 70
     1
 43
0.0
 10
0.1717767331149851
 20
-0.4473770048979802
 10
0.1659929559508093
 20
-0.4489732259713826
 10
0.1726518733932103
 20
-0.4731012714428111
 10
0.178435650557379
 20
-0.4715050503694123
1001
AcDbBlockRepETag
1070
     1
1071
      376
1005
12C0D
  0
LWPOLYLINE
  5
12C0E
330
12854
100
AcDbEntity
  8
DEPA
100
AcDbPolyline
 90
        4
 70
     1
 43
0.0
 10
0.1850003827801352
 20
-0.4418396193649166
 10
0.1795945695727177
 20
-0.4444429217996238
 10
0.1904547043492677
 20
-0.4669942240327849
 10
0.1958605175566852
 20
-0.4643909215980777
1001
AcDbBlockRepETag
1070
     1
1071
      377
1005
12C0E
  0
LWPOLYLINE
  5
12C0F
330
12854
100
AcDbEntity
  8
DEPA
100
AcDbPolyline
 90
        4
 70
     1
 43
0.0
 10
0.1970227845888353
 20
-0.4340300480733533
 10
0.192168682622583
 20
-0.4375567595871104
 10
0.2068809810658259
 20
-0.4578065011729536
 10
0.211735083032071
 20
-0.4542797896591964
1001
AcDbBlockRepETag
1070
     1
1071
      378
1005
12C0F
  0
LWPOLYLINE
  5
12C10
330
12854
100
AcDbEntity
  8
DEPA
100
AcDbPolyline
 90
        4
 70
     1
 43
0.0
 10
0.207457528654917
 20
-0.4241992970703273
 10
0.2033111527609925
 20
-0.4285360662532903
 10
0.221402749493631
 20
-0.4458334038357066
 10
0.2255491253875483
 20
-0.4414966346527401
1001
AcDbBlockRepETag
1070
     1
1071
      379
1005
12C10
  0
LWPOLYLINE
  5
12C11
330
12854
100
AcDbEntity
  8
DEPA
100
AcDbPolyline
 90
        4
 70
     1
 43
0.0
 10
0.2159692337183579
 20
-0.4126633347818434
 10
0.2126638518296353
 20
-0.4176707743041704
 10
0.2335532680468724
 20
-0.43145975722096
 10
0.2368586499355878
 20
-0.4264523176986295
1001
AcDbBlockRepETag
1070
     1
1071
      380
1005
12C11
  0
LWPOLYLINE
  5
12C12
330
12854
100
AcDbEntity
  8
DEPA
100
AcDbPolyline
 90
        4
 70
     1
 43
0.0
 10
0.2222843265749397
 20
-0.3997929365276818
 10
0.2199261763850195
 20
-0.4053101031629894
 10
0.2429420090617604
 20
-0.415147542157591
 10
0.2453001592516806
 20
-0.4096303755222835
1001
AcDbBlockRepETag
1070
     1
1071
      381
1005
12C12
  0
LWPOLYLINE
  5
12C13
330
12854
100
AcDbEntity
  8
DEPA
100
AcDbPolyline
 90
        4
 70
     1
 43
0.0
 10
0.2261998349442074
 20
-0.3860017674975182
 10
0.2248647093404692
 20
-0.3918513349706103
 10
0.2492672106770009
 20
-0.3974210466594705
 10
0.250602336280739
 20
-0.3915714791863785
1001
AcDbBlockRepETag
1070
     1
1071
      382
1005
12C13
  0
LWPOLYLINE
  5
12C14
330
12854
100
AcDbEntity
  8
DEPA
100
AcDbPolyline
 90
        4
 70
     1
 43
0.0
 10
0.2275899111654631
 20
-0.3717330872114104
 10
0.2273207221833609
 20
-0.3777270456106549
 10
0.252325575708273
 20
-0.3788500148773224
 10
0.2525947646903752
 20
-0.3728560564780778
1001
AcDbBlockRepETag
1070
     1
1071
      383
1005
12C14
  0
LWPOLYLINE
  5
12C15
330
12854
100
AcDbEntity
  8
DEPA
100
AcDbPolyline
 90
        4
 70
     1
 43
0.0
 10
0.2264098770451959
 20
-0.3574455027940431
 10
0.2272152766400985
 20
-0.3633912013646494
 10
0.2520188057870492
 20
-0.3600313350529021
 10
0.2512134061921465
 20
-0.3540856364822957
1001
AcDbBlockRepETag
1070
     1
1071
      384
1005
12C15
  0
LWPOLYLINE
  5
12C16
330
12854
100
AcDbEntity
  8
DEPA
100
AcDbPolyline
 90
        4
 70
     1
 43
0.0
 10
0.2226976598509758
 20
-0.3435982289644741
 10
0.2245517618172279
 20
-0.3493045680622444
 10
0.2483567607510118
 20
-0.3415698550398574
 10
0.2465026587847667
 20
-0.3358635159420871
1001
AcDbBlockRepETag
1070
     1
1071
      385
1005
12C16
  0
LWPOLYLINE
  5
12C17
330
12854
100
AcDbEntity
  8
DEPA
100
AcDbPolyline
 90
        4
 70
     1
 43
0.0
 10
0.2165725732978494
 20
-0.3306363284971496
 10
0.219415785272691
 20
-0.3359199016882997
 10
0.2414571417407565
 20
-0.3240589419959434
 10
0.238613929765922
 20
-0.3187753688048005
1001
AcDbBlockRepETag
1070
     1
1071
      386
1005
12C17
  0
LWPOLYLINE
  5
12C18
330
12854
100
AcDbEntity
  8
DEPA
100
AcDbPolyline
 90
        4
 70
     1
 43
0.0
 10
0.2082314827073652
 20
-0.3189764075381873
 10
0.2119724215185137
 20
-0.3236673964329952
 10
0.2315417081883062
 20
-0.3080614110744264
 10
0.2278007693771507
 20
-0.3033704221796185
1001
AcDbBlockRepETag
1070
     1
1071
      387
1005
12C18
  0
LWPOLYLINE
  5
12C19
330
12854
100
AcDbEntity
  8
DEPA
100
AcDbPolyline
 90
        4
 70
     1
 43
0.0
 10
0.1979424775941645
 20
-0.3089932255410019
 10
0.2024609063901899
 20
-0.3129408578966419
 10
0.2189291502864599
 20
-0.2940914360819278
 10
0.2144107214904416
 20
-0.2901438037262949
1001
AcDbBlockRepETag
1070
     1
1071
      388
1005
12C19
  0
LWPOLYLINE
  5
12C1A
330
12854
100
AcDbEntity
  8
DEPA
100
AcDbPolyline
 90
        4
 70
     1
 43
0.0
 10
0.1860362550484318
 20
-0.3010076501891916
 10
0.1911869478100421
 20
-0.3040850458536255
 10
0.2040248460238594
 20
-0.2825980235092515
 10
0.1988741532622491
 20
-0.2795206278448106
1001
AcDbBlockRepETag
1070
     1
1071
      389
1005
12C1A
  0
LWPOLYLINE
  5
12C1B
330
12854
100
AcDbEntity
  8
DEPA
100
AcDbPolyline
 90
        4
 70
     1
 43
0.0
 10
0.1728954908592364
 20
-0.2952763444451065
 10
0.1785129000830672
 20
-0.2973845933895944
 10
0.1873078320027837
 20
-0.2739505810932741
 10
0.1816904227789457
 20
-0.2718423321487862
1001
AcDbBlockRepETag
1070
     1
1071
      390
1005
12C1B
  0
LWPOLYLINE
  5
12C1C
330
12854
100
AcDbEntity
  8
DEPA
100
AcDbPolyline
 90
        4
 70
     1
 43
0.0
 10
0.1589425399998738
 20
-0.2919835171911025
 10
0.1648461175314715
 20
-0.2930548585598949
 10
0.1693154068086891
 20
-0.2684270447484138
 10
0.1634118292770914
 20
-0.2673557033796214
1001
AcDbBlockRepETag
1070
     1
1071
      391
1005
12C1C
  0
LWPOLYLINE
  5
12C1D
330
12854
100
AcDbEntity
  8
DEPA
100
AcDbPolyline
 90
        4
 70
     1
 43
0.0
 10
0.1308741521568386
 20
-0.2624776748438187
 10
0.1368268403647299
 20
-0.2617256754424346
 10
0.1336897423687127
 20
-0.2368929877920891
 10
0.1277370541608214
 20
-0.2376449871934732
1001
AcDbBlockRepETag
1070
     1
1071
      392
1005
12C1D
  0
LWPOLYLINE
  5
12C1E
330
12854
100
AcDbEntity
  8
DEPA
100
AcDbPolyline
 90
        4
 70
     1
 43
0.0
 10
0.1173866269900721
 20
-0.2654340944769551
 10
0.1231981259568435
 20
-0.2639419551539675
 10
0.1169734038742227
 20
-0.2396982632987559
 10
0.1111619049074513
 20
-0.2411904026217435
1001
AcDbBlockRepETag
1070
     1
1071
      393
1005
12C1E
  0
LWPOLYLINE
  5
12C1F
330
12854
100
AcDbEntity
  8
DEPA
100
AcDbPolyline
 90
        4
 70
     1
 43
0.0
 10
0.1043759926201737
 20
-0.2700576370001748
 10
0.1099546515354994
 20
-0.2678488896840712
 10
0.1007404729519798
 20
-0.2445765311270271
 10
0.0951618140366542
 20
-0.2467852784431379
1001
AcDbBlockRepETag
1070
     1
1071
      394
1005
12C1F
  0
LWPOLYLINE
  5
12C20
330
12854
100
AcDbEntity
  8
DEPA
100
AcDbPolyline
 90
        4
 70
     1
 43
0.0
 10
0.0920474345233196
 20
-0.2762753863859118
 10
0.0973052746035812
 20
-0.2733848643413026
 10
0.0852469526197162
 20
-0.2514508580791137
 10
0.0799891125394545
 20
-0.2543413801237229
1001
AcDbBlockRepETag
1070
     1
1071
      395
1005
12C20
  0
LWPOLYLINE
  5
12C21
330
12854
100
AcDbEntity
  8
DEPA
100
AcDbPolyline
 90
        4
 70
     1
 43
0.0
 10
0.0805953814254359
 20
-0.2839892850120549
 10
0.085449483391681
 20
-0.2804625734983013
 10
0.0707371849484524
 20
-0.2602128319124581
 10
0.0658830829822001
 20
-0.2637395434262117
1001
AcDbBlockRepETag
1070
     1
1071
      396
1005
12C21
  0
LWPOLYLINE
  5
12C22
330
12854
100
AcDbEntity
  8
DEPA
100
AcDbPolyline
 90
        4
 70
     1
 43
0.0
 10
0.0702004390449851
 20
-0.2930776800892154
 10
0.0745742508095155
 20
-0.2889703974536424
 10
0.0574399976420601
 20
-0.2707242710655606
 10
0.0530661858775297
 20
-0.2748315537011337
1001
AcDbBlockRepETag
1070
     1
1071
      397
1005
12C22
  0
LWPOLYLINE
  5
12C23
330
12854
100
AcDbEntity
  8
DEPA
100
AcDbPolyline
 90
        4
 70
     1
 43
0.0
 10
0.0610265418329554
 20
-0.303397242197871
 10
0.0648510857714477
 20
-0.2987741627412141
 10
0.0455650952877314
 20
-0.2828194038637441
 10
0.0417405513492391
 20
-0.2874424833203974
1001
AcDbBlockRepETag
1070
     1
1071
      398
1005
12C23
  0
LWPOLYLINE
  5
12C24
330
12854
100
AcDbEntity
  8
DEPA
100
AcDbPolyline
 90
        4
 70
     1
 43
0.0
 10
0.0532183676285989
 20
-0.314785225678964
 10
0.0564333283984802
 20
-0.3097192581259485
 10
0.0352997521893137
 20
-0.296307482837495
 10
0.0320847914194467
 20
-0.3013734503905105
1001
AcDbBlockRepETag
1070
     1
1071
      399
1005
12C24
  0
LWPOLYLINE
  5
12C25
330
12854
100
AcDbEntity
  8
DEPA
100
AcDbPolyline
 90
        4
 70
     1
 43
0.0
 10
0.0468990560035003
 20
-0.3270620352301528
 10
0.0494537317528874
 20
-0.3216330729153576
 10
0.0268058589396922
 20
-0.3109757929240295
 10
0.0242511831903052
 20
-0.3164047552388247
1001
AcDbBlockRepETag
1070
     1
1071
      400
1005
12C25
  0
LWPOLYLINE
  5
12C26
330
12854
100
AcDbEntity
  8
DEPA
100
AcDbPolyline
 90
        4
 70
     1
 43
0.0
 10
0.0421682662769492
 20
-0.3400340582310015
 10
0.0440223682432084
 20
-0.3343277191332312
 10
0.0202173693094245
 20
-0.3265930061108442
 10
0.0183632673431653
 20
-0.3322993452086145
1001
AcDbBlockRepETag
1070
     1
1071
      401
1005
12C26
  0
LWPOLYLINE
  5
12C27
330
12854
100
AcDbEntity
  8
DEPA
100
AcDbPolyline
 90
        4
 70
     1
 43
0.0
 10
0.0391006058289882
 20
-0.3534967181296693
 10
0.040224893716502
 20
-0.3476029946252979
 10
0.0156381877157266
 20
-0.3429128296167043
 10
0.0145138998282128
 20
-0.3488065531210758
1001
AcDbBlockRepETag
1070
     1
1071
      402
1005
12C27
  0
LWPOLYLINE
  5
12C28
330
12854
100
AcDbEntity
  8
DEPA
100
AcDbPolyline
 90
        4
 70
     1
 43
0.0
 10
0.0377444534973925
 20
-0.367237700737352
 10
0.038121196614572
 20
-0.3612495403667815
 10
0.0131405305878296
 20
-0.3596778900759396
 10
0.0127637874706501
 20
-0.3656660504465101
1001
AcDbBlockRepETag
1070
     1
1071
      403
1005
12C28
  0
LWPOLYLINE
  5
12C29
330
12854
100
AcDbEntity
  8
DEPA
100
AcDbPolyline
 90
        4
 70
     1
 43
0.0
 10
0.038121196614572
 20
-0.3810403025498807
 10
0.0377444534973925
 20
-0.3750521421793103
 10
0.0127637874706501
 20
-0.3766237924701592
 10
0.0131405305878296
 20
-0.3826119528407297
1001
AcDbBlockRepETag
1070
     1
1071
      404
1005
12C29
  0
LWPOLYLINE
  5
12C2A
330
12854
100
AcDbEntity
  8
DEPA
100
AcDbPolyline
 90
        4
 70
     1
 43
0.0
 10
0.040224893716502
 20
-0.3946868482913679
 10
0.0391006058289811
 20
-0.3887931247869893
 10
0.0145138998282128
 20
-0.3934832897955864
 10
0.0156381877157266
 20
-0.399377013299965
1001
AcDbBlockRepETag
1070
     1
1071
      405
1005
12C2A
  0
LWPOLYLINE
  5
12C2B
330
12854
100
AcDbEntity
  8
DEPA
100
AcDbPolyline
 90
        4
 70
     1
 43
0.0
 10
0.0440223682432084
 20
-0.407962123783431
 10
0.0421682662769634
 20
-0.4022557846856607
 10
0.0183632673431724
 20
-0.4099904977080549
 10
0.0202173693094245
 20
-0.4156968368058252
1001
AcDbBlockRepETag
1070
     1
1071
      406
1005
12C2B
  0
LWPOLYLINE
  5
12C2C
330
12854
100
AcDbEntity
  8
DEPA
100
AcDbPolyline
 90
        4
 70
     1
 43
0.0
 10
0.0494537317528945
 20
-0.4206567700012905
 10
0.0468990560035074
 20
-0.4152278076864953
 10
0.0242511831903052
 20
-0.4258850876778304
 10
0.0268058589396993
 20
-0.4313140499926256
1001
AcDbBlockRepETag
1070
     1
1071
      407
1005
12C2C
  0
LWPOLYLINE
  5
12C2D
330
12854
100
AcDbEntity
  8
DEPA
100
AcDbPolyline
 90
        4
 70
     1
 43
0.0
 10
0.056433328398473
 20
-0.4325705847906996
 10
0.053218367628606
 20
-0.4275046172376911
 10
0.0320847914194396
 20
-0.4409163925261446
 10
0.0352997521893208
 20
-0.4459823600791531
1001
AcDbBlockRepETag
1070
     1
1071
      408
1005
12C2D
  0
LWPOLYLINE
  5
12C2E
330
12854
100
AcDbEntity
  8
DEPA
100
AcDbPolyline
 90
        4
 70
     1
 43
0.0
 10
0.0648510857714548
 20
-0.443515680175441
 10
0.0610265418329625
 20
-0.4388926007187913
 10
0.0417405513492391
 20
-0.4548473595962613
 10
0.0455650952877314
 20
-0.4594704390529181
1001
AcDbBlockRepETag
1070
     1
1071
      409
1005
12C2E
  0
LWPOLYLINE
  5
12C2F
330
12854
100
AcDbEntity
  8
DEPA
100
AcDbPolyline
 90
        4
 70
     1
 43
0.0
 10
0.0745742508095155
 20
-0.4533194454630128
 10
0.0702004390449922
 20
-0.4492121628274397
 10
0.0530661858775368
 20
-0.4674582892155251
 10
0.0574399976420601
 20
-0.4715655718510981
1001
AcDbBlockRepETag
1070
     1
1071
      410
1005
12C2F
  0
LWPOLYLINE
  5
12C30
330
12854
100
AcDbEntity
  8
DEPA
100
AcDbPolyline
 90
        4
 70
     1
 43
0.0
 10
0.0854494833916739
 20
-0.4618272694183539
 10
0.0805953814254288
 20
-0.4583005579045967
 10
0.065883082982193
 20
-0.4785502994904399
 10
0.0707371849484453
 20
-0.482077011004197
1001
AcDbBlockRepETag
1070
     1
1071
      411
1005
12C30
  0
LWPOLYLINE
  5
12C31
330
12854
100
AcDbEntity
  8
DEPA
100
AcDbPolyline
 90
        4
 70
     1
 43
0.0
 10
0.0973052746035812
 20
-0.4689049785753561
 10
0.0920474345233196
 20
-0.466014456530747
 10
0.0799891125394545
 20
-0.4879484627929323
 10
0.0852469526197162
 20
-0.4908389848375414
1001
AcDbBlockRepETag
1070
     1
1071
      412
1005
12C31
  0
LWPOLYLINE
  5
12C32
330
12854
100
AcDbEntity
  8
DEPA
100
AcDbPolyline
 90
        4
 70
     1
 43
0.0
 10
0.1099546515354923
 20
-0.4744409532325911
 10
0.1043759926201666
 20
-0.4722322059164874
 10
0.0951618140366542
 20
-0.4955045644735244
 10
0.1007404729519798
 20
-0.497713311789628
1001
AcDbBlockRepETag
1070
     1
1071
      413
1005
12C32
  0
LWPOLYLINE
  5
12C33
330
12854
100
AcDbEntity
  8
DEPA
100
AcDbPolyline
 90
        4
 70
     1
 43
0.0
 10
0.1231981259568435
 20
-0.4783478877626984
 10
0.1173866269900721
 20
-0.4768557484397072
 10
0.1111619049074513
 20
-0.5010994402949187
 10
0.1169734038742227
 20
-0.5025915796179099
1001
AcDbBlockRepETag
1070
     1
1071
      414
1005
12C33
  0
LWPOLYLINE
  5
12C34
330
12854
100
AcDbEntity
  8
DEPA
100
AcDbPolyline
 90
        4
 70
     1
 43
0.0
 10
0.1368268403647228
 20
-0.4805641674742312
 10
0.1308741521568386
 20
-0.4798121680728436
 10
0.1277370541608285
 20
-0.5046448557231962
 10
0.1336897423687127
 20
-0.5053968551245803
1001
AcDbBlockRepETag
1070
     1
1071
      415
1005
12C34
  0
LWPOLYLINE
  5
12C35
330
12854
100
AcDbEntity
  8
DEPA
100
AcDbPolyline
 90
        4
 70
     1
 43
0.0
 10
0.1506258617915215
 20
-0.4810548403122006
 10
0.1446258617915213
 20
-0.4810548403122006
 10
0.1446258617915213
 20
-0.5060848974391093
 10
0.1506258617915215
 20
-0.5060848974391093
1001
AcDbBlockRepETag
1070
     1
1071
      416
1005
12C35
  0
LWPOLYLINE
  5
12C36
330
12854
100
AcDbEntity
  8
DEPA
100
AcDbPolyline
 90
        4
 70
     1
 43
0.0
 10
0.1643775714262183
 20
-0.47981216807284
 10
0.158424883218327
 20
-0.4805641674742241
 10
0.1615619812143443
 20
-0.5053968551245767
 10
0.1675146694222356
 20
-0.5046448557231891
1001
AcDbBlockRepETag
1070
     1
1071
      417
1005
12C36
  0
LWPOLYLINE
  5
12C37
330
12854
100
AcDbEntity
  8
DEPA
100
AcDbPolyline
 90
        4
 70
     1
 43
0.0
 10
0.1778650965929849
 20
-0.4768557484397072
 10
0.1720535976262134
 20
-0.4783478877626948
 10
0.1782783197088342
 20
-0.5025915796179064
 10
0.1840898186756057
 20
-0.5010994402949187
1001
AcDbBlockRepETag
1070
     1
1071
      418
1005
12C37
  0
LWPOLYLINE
  5
12C38
330
12854
100
AcDbEntity
  8
DEPA
100
AcDbPolyline
 90
        4
 70
     1
 43
0.0
 10
0.1908757309628619
 20
-0.4722322059164874
 10
0.1852970720475362
 20
-0.4744409532325982
 10
0.1945112506310487
 20
-0.4977133117896351
 10
0.2000899095463815
 20
-0.4955045644735244
1001
AcDbBlockRepETag
1070
     1
1071
      419
1005
12C38
  0
LWPOLYLINE
  5
12C39
330
12854
100
AcDbEntity
  8
DEPA
100
AcDbPolyline
 90
        4
 70
     1
 43
0.0
 10
0.2032042890597303
 20
-0.466014456530747
 10
0.1979464489794616
 20
-0.4689049785753561
 10
0.2100047709633266
 20
-0.490838984837545
 10
0.2152626110435882
 20
-0.4879484627929358
1001
AcDbBlockRepETag
1070
     1
1071
      420
1005
12C39
  0
LWPOLYLINE
  5
12C3A
330
12854
100
AcDbEntity
  8
DEPA
100
AcDbPolyline
 90
        4
 70
     1
 43
0.0
 10
0.2146563421575998
 20
-0.4583005579046003
 10
0.2098022401913546
 20
-0.4618272694183574
 10
0.2245145386345904
 20
-0.4820770110042041
 10
0.2293686406008355
 20
-0.478550299490447
1001
AcDbBlockRepETag
1070
     1
1071
      421
1005
12C3A
  0
LWPOLYLINE
  5
12C3B
330
12854
100
AcDbEntity
  8
DEPA
100
AcDbPolyline
 90
        4
 70
     1
 43
0.0
 10
0.2250512845380577
 20
-0.4492121628274468
 10
0.2206774727735343
 20
-0.4533194454630199
 10
0.2378117259409898
 20
-0.4715655718511016
 10
0.2421855377055131
 20
-0.4674582892155286
1001
AcDbBlockRepETag
1070
     1
1071
      422
1005
12C3B
  0
LWPOLYLINE
  5
12C3C
330
12854
100
AcDbEntity
  8
DEPA
100
AcDbPolyline
 90
        4
 70
     1
 43
0.0
 10
0.2342251817500944
 20
-0.4388926007187913
 10
0.2304006378116021
 20
-0.4435156801754481
 10
0.2496866282953114
 20
-0.4594704390529181
 10
0.2535111722338037
 20
-0.4548473595962613
1001
AcDbBlockRepETag
1070
     1
1071
      423
1005
12C3C
  0
LWPOLYLINE
  5
12C3D
330
12854
100
AcDbEntity
  8
DEPA
100
AcDbPolyline
 90
        4
 70
     1
 43
0.0
 10
0.2420333559544296
 20
-0.4275046172376911
 10
0.2388183951845555
 20
-0.4325705847907031
 10
0.2599519713937148
 20
-0.4459823600791566
 10
0.263166932163589
 20
-0.4409163925261446
1001
AcDbBlockRepETag
1070
     1
1071
      424
1005
12C3D
  0
LWPOLYLINE
  5
12C3E
330
12854
100
AcDbEntity
  8
DEPA
100
AcDbPolyline
 90
        4
 70
     1
 43
0.0
 10
0.2483526675795495
 20
-0.4152278076865024
 10
0.2457979918301625
 20
-0.4206567700013011
 10
0.2684458646433576
 20
-0.4313140499926292
 10
0.2710005403927447
 20
-0.425885087677834
1001
AcDbBlockRepETag
1070
     1
1071
      425
1005
12C3E
  0
LWPOLYLINE
  5
12C3F
330
12854
100
AcDbEntity
  8
DEPA
100
AcDbPolyline
 90
        4
 70
     1
 43
0.0
 10
0.2530834573060936
 20
-0.4022557846856607
 10
0.2512293553398415
 20
-0.407962123783431
 10
0.2750343542736253
 20
-0.4156968368058216
 10
0.2768884562398775
 20
-0.4099904977080513
1001
AcDbBlockRepETag
1070
     1
1071
      426
1005
12C3F
  0
LWPOLYLINE
  5
12C40
330
12854
100
AcDbEntity
  8
DEPA
100
AcDbPolyline
 90
        4
 70
     1
 43
0.0
 10
0.2561511177540616
 20
-0.3887931247869929
 10
0.2550268298665408
 20
-0.3946868482913643
 10
0.2796135358673162
 20
-0.3993770132999614
 10
0.2807378237548299
 20
-0.39348328979559
1001
AcDbBlockRepETag
1070
     1
1071
      427
1005
12C40
  0
LWPOLYLINE
  5
12C41
330
12854
100
AcDbEntity
  8
DEPA
100
AcDbPolyline
 90
        4
 70
     1
 43
0.0
 10
0.2575072700856502
 20
-0.3750521421792996
 10
0.2571305269684707
 20
-0.3810403025498701
 10
0.2821111929952202
 20
-0.3826119528407119
 10
0.2824879361123926
 20
-0.3766237924701414
1001
AcDbBlockRepETag
1070
     1
1071
      428
1005
12C41
  0
LWPOLYLINE
  5
12C42
330
12854
100
AcDbEntity
  8
DEPA
100
AcDbPolyline
 90
        4
 70
     1
 43
0.0
 10
0.2571305269684707
 20
-0.361249540366785
 10
0.2575072700856502
 20
-0.3672377007373555
 10
0.2824879361123926
 20
-0.3656660504465066
 10
0.2821111929952202
 20
-0.3596778900759361
1001
AcDbBlockRepETag
1070
     1
1071
      429
1005
12C42
  0
LWPOLYLINE
  5
12C43
330
12854
100
AcDbEntity
  8
DEPA
100
AcDbPolyline
 90
        4
 70
     1
 43
0.0
 10
0.2550268298665408
 20
-0.3476029946252908
 10
0.2561511177540616
 20
-0.3534967181296622
 10
0.2807378237548299
 20
-0.3488065531210722
 10
0.2796135358673162
 20
-0.3429128296167008
1001
AcDbBlockRepETag
1070
     1
1071
      430
1005
12C43
  0
LWPOLYLINE
  5
12C44
330
12854
100
AcDbEntity
  8
DEPA
100
AcDbPolyline
 90
        4
 70
     1
 43
0.0
 10
0.2512293553398344
 20
-0.3343277191332277
 10
0.2530834573060865
 20
-0.340034058230998
 10
0.2768884562398703
 20
-0.3322993452086109
 10
0.2750343542736182
 20
-0.3265930061108406
1001
AcDbBlockRepETag
1070
     1
1071
      431
1005
12C44
  0
LWPOLYLINE
  5
12C45
330
12854
100
AcDbEntity
  8
DEPA
100
AcDbPolyline
 90
        4
 70
     1
 43
0.0
 10
0.2457979918301483
 20
-0.321633072915354
 10
0.2483526675795424
 20
-0.3270620352301563
 10
0.2710005403927376
 20
-0.3164047552388283
 10
0.2684458646433434
 20
-0.310975792924026
1001
AcDbBlockRepETag
1070
     1
1071
      432
1005
12C45
  0
LWPOLYLINE
  5
12C46
330
12854
100
AcDbEntity
  8
DEPA
100
AcDbPolyline
 90
        4
 70
     1
 43
0.0
 10
0.2388183951845697
 20
-0.3097192581259591
 10
0.2420333559544439
 20
-0.3147852256789676
 10
0.2631669321636032
 20
-0.3013734503905212
 10
0.259951971393729
 20
-0.2963074828375056
1001
AcDbBlockRepETag
1070
     1
1071
      433
1005
12C46
  0
LWPOLYLINE
  5
12C47
330
12854
100
AcDbEntity
  8
DEPA
100
AcDbPolyline
 90
        4
 70
     1
 43
0.0
 10
0.2304006378115879
 20
-0.2987741627412177
 10
0.2342251817500802
 20
-0.3033972421978746
 10
0.2535111722338037
 20
-0.2874424833204045
 10
0.2496866282953114
 20
-0.2828194038637477
1001
AcDbBlockRepETag
1070
     1
1071
      434
1005
12C47
  0
LWPOLYLINE
  5
12C48
330
12854
100
AcDbEntity
  8
DEPA
100
AcDbPolyline
 90
        4
 70
     1
 43
0.0
 10
0.2206774727735272
 20
-0.2889703974536388
 10
0.2250512845380577
 20
-0.2930776800892119
 10
0.2421855377055131
 20
-0.2748315537011265
 10
0.2378117259409826
 20
-0.2707242710655535
1001
AcDbBlockRepETag
1070
     1
1071
      435
1005
12C48
  0
LWPOLYLINE
  5
12C49
330
12854
100
AcDbEntity
  8
DEPA
100
AcDbPolyline
 90
        4
 70
     1
 43
0.0
 10
0.2098022401913617
 20
-0.2804625734983048
 10
0.2146563421576069
 20
-0.283989285012062
 10
0.2293686406008426
 20
-0.2637395434262189
 10
0.2245145386345975
 20
-0.2602128319124617
1001
AcDbBlockRepETag
1070
     1
1071
      436
1005
12C49
  0
LWPOLYLINE
  5
12C4A
330
12854
100
AcDbEntity
  8
DEPA
100
AcDbPolyline
 90
        4
 70
     1
 43
0.0
 10
0.1979464489794616
 20
-0.2733848643413026
 10
0.2032042890597232
 20
-0.2762753863859118
 10
0.2152626110435882
 20
-0.2543413801237193
 10
0.2100047709633266
 20
-0.2514508580791102
1001
AcDbBlockRepETag
1070
     1
1071
      437
1005
12C4A
  0
LWPOLYLINE
  5
12C4B
330
12854
100
AcDbEntity
  8
DEPA
100
AcDbPolyline
 90
        4
 70
     1
 43
0.0
 10
0.1852970720475504
 20
-0.2678488896840676
 10
0.1908757309628761
 20
-0.2700576370001713
 10
0.2000899095463957
 20
-0.2467852784431344
 10
0.1945112506310629
 20
-0.2445765311270236
1001
AcDbBlockRepETag
1070
     1
1071
      438
1005
12C4B
  0
LWPOLYLINE
  5
12C4C
330
12854
100
AcDbEntity
  8
DEPA
100
AcDbPolyline
 90
        4
 70
     1
 43
0.0
 10
0.1720535976262063
 20
-0.2639419551539639
 10
0.1778650965929778
 20
-0.2654340944769515
 10
0.1840898186755986
 20
-0.24119040262174
 10
0.1782783197088271
 20
-0.2396982632987523
1001
AcDbBlockRepETag
1070
     1
1071
      439
1005
12C4C
  0
LWPOLYLINE
  5
12C4D
330
12854
100
AcDbEntity
  8
DEPA
100
AcDbPolyline
 90
        4
 70
     1
 43
0.0
 10
0.1584248832183199
 20
-0.2617256754424382
 10
0.1643775714262041
 20
-0.2624776748438222
 10
0.1675146694222214
 20
-0.2376449871934732
 10
0.1615619812143372
 20
-0.2368929877920891
1001
AcDbBlockRepETag
1070
     1
1071
      440
1005
12C4D
  0
LWPOLYLINE
  5
12C4E
330
12854
100
AcDbEntity
  8
DEPA
100
AcDbPolyline
 90
        4
 70
     1
 43
0.0
 10
-0.1000800594467286
 20
-0.1076708483091515
 10
-0.0940800594467284
 20
-0.1076708483091515
 10
-0.0940800594467284
 20
-0.0826407911822429
 10
-0.1000800594467286
 20
-0.0826407911822429
1001
AcDbBlockRepETag
1070
     1
1071
      441
1005
12C4E
  0
LWPOLYLINE
  5
12C4F
330
12854
100
AcDbEntity
  8
DEPA
100
AcDbPolyline
 90
        4
 70
     1
 43
0.0
 10
-0.1000800594467286
 20
-0.077670848309154
 10
-0.0940800594467284
 20
-0.077670848309154
 10
-0.0940800594467284
 20
-0.0526407911822453
 10
-0.1000800594467286
 20
-0.0526407911822453
1001
AcDbBlockRepETag
1070
     1
1071
      442
1005
12C4F
  0
LWPOLYLINE
  5
12C50
330
12854
100
AcDbEntity
  8
DEPA
100
AcDbPolyline
 90
        4
 70
     1
 43
0.0
 10
-0.1000800594467286
 20
-0.0476708483091528
 10
-0.0940800594467284
 20
-0.0476708483091528
 10
-0.0940800594467284
 20
-0.0226407911822442
 10
-0.1000800594467286
 20
-0.0226407911822442
1001
AcDbBlockRepETag
1070
     1
1071
      443
1005
12C50
  0
LWPOLYLINE
  5
12C51
330
12854
100
AcDbEntity
  8
DEPA
100
AcDbPolyline
 90
        4
 70
     1
 43
0.0
 10
-0.1123979010182872
 20
-0.1099849298493574
 10
-0.1065864020515157
 20
-0.1084927905263697
 10
-0.1128111241341365
 20
-0.0842490986711582
 10
-0.118622623100908
 20
-0.0857412379941458
1001
AcDbBlockRepETag
1070
     1
1071
      444
1005
12C51
  0
LWPOLYLINE
  5
12C52
330
12854
100
AcDbEntity
  8
DEPA
100
AcDbPolyline
 90
        4
 70
     1
 43
0.0
 10
-0.1237532662688316
 20
-0.11528963289323
 10
-0.11849542618857
 20
-0.1123991108486209
 10
-0.130553748172435
 20
-0.090465104586432
 10
-0.1358115882526967
 20
-0.0933556266310412
1001
AcDbBlockRepETag
1070
     1
1071
      445
1005
12C52
  0
LWPOLYLINE
  5
12C53
330
12854
100
AcDbEntity
  8
DEPA
100
AcDbPolyline
 90
        4
 70
     1
 43
0.0
 10
-0.1334326558375416
 20
-0.1232516434391897
 10
-0.1290588440730112
 20
-0.1191443608036167
 10
-0.1461930972404666
 20
-0.1008982344155349
 10
-0.1505669090049899
 20
-0.1050055170511079
1001
AcDbBlockRepETag
1070
     1
1071
      446
1005
12C53
  0
LWPOLYLINE
  5
12C54
330
12854
100
AcDbEntity
  8
DEPA
100
AcDbPolyline
 90
        4
 70
     1
 43
0.0
 10
-0.1408278780795236
 20
-0.1333706790823932
 10
-0.1376129173096565
 20
-0.1283047115293776
 10
-0.1587464935188088
 20
-0.1148929362409241
 10
-0.16196145428869
 20
-0.1199589037939397
1001
AcDbBlockRepETag
1070
     1
1071
      447
1005
12C54
  0
LWPOLYLINE
  5
12C55
330
12854
100
AcDbEntity
  8
DEPA
100
AcDbPolyline
 90
        4
 70
     1
 43
0.0
 10
-0.1454742639835835
 20
-0.1450109235981891
 10
-0.1436201620173385
 20
-0.1393045845004188
 10
-0.1674251609511224
 20
-0.1315698714780247
 10
-0.1692792629173674
 20
-0.137276210575795
1001
AcDbBlockRepETag
1070
     1
1071
      448
1005
12C55
  0
LWPOLYLINE
  5
12C56
330
12854
100
AcDbEntity
  8
DEPA
100
AcDbPolyline
 90
        4
 70
     1
 43
0.0
 10
-0.1470798640351596
 20
-0.157440977613799
 10
-0.1467031209179872
 20
-0.1514528172432286
 10
-0.1716837869447225
 20
-0.1498811669523867
 10
-0.172060530061902
 20
-0.1558693273229501
1001
AcDbBlockRepETag
1070
     1
1071
      449
1005
12C56
  0
LWPOLYLINE
  5
12C57
330
12854
100
AcDbEntity
  8
DEPA
100
AcDbPolyline
 90
        4
 70
     1
 43
0.0
 10
-0.1455437924780263
 20
-0.1698798151209111
 10
-0.14666808036554
 20
-0.1639860916165325
 10
-0.1712547863663154
 20
-0.1686762566251296
 10
-0.1701304984788017
 20
-0.1745699801295082
1001
AcDbBlockRepETag
1070
     1
1071
      450
1005
12C57
  0
LWPOLYLINE
  5
12C58
330
12854
100
AcDbEntity
  8
DEPA
100
AcDbPolyline
 90
        4
 70
     1
 43
0.0
 10
-0.1409625663373895
 20
-0.181545858212079
 10
-0.1435172420867836
 20
-0.1761168958972838
 10
-0.1661651148999788
 20
-0.1867741758886119
 10
-0.1636104391505917
 20
-0.1922031382034071
1001
AcDbBlockRepETag
1070
     1
1071
      451
1005
12C58
  0
LWPOLYLINE
  5
12C59
330
12854
100
AcDbEntity
  8
DEPA
100
AcDbPolyline
 90
        4
 70
     1
 43
0.0
 10
-0.1336240409002549
 20
-0.1917060864952127
 10
-0.1374485848387472
 20
-0.1870830070385558
 10
-0.1567345753224636
 20
-0.2030377659160329
 10
-0.1529100313839713
 20
-0.2076608453726827
1001
AcDbBlockRepETag
1070
     1
1071
      452
1005
12C59
  0
LWPOLYLINE
  5
12C5A
330
12854
100
AcDbEntity
  8
DEPA
100
AcDbPolyline
 90
        4
 70
     1
 43
0.0
 10
-0.1239893227090185
 20
-0.1997220954605474
 10
-0.1288434246752779
 20
-0.1961953839467902
 10
-0.1435557231185065
 20
-0.2164451255326334
 10
-0.1387016211522614
 20
-0.2199718370463906
1001
AcDbBlockRepETag
1070
     1
1071
      453
1005
12C5A
  0
LWPOLYLINE
  5
12C5B
330
12854
100
AcDbEntity
  8
DEPA
100
AcDbPolyline
 90
        4
 70
     1
 43
0.0
 10
-0.1126637965416712
 20
-0.2050902097839859
 10
-0.1182424554570041
 20
-0.2028814624678752
 10
-0.1274566340405165
 20
-0.2261538210249121
 10
-0.1218779751251837
 20
-0.2283625683410229
1001
AcDbBlockRepETag
1070
     1
1071
      454
1005
12C5B
  0
LWPOLYLINE
  5
12C5C
330
12854
100
AcDbEntity
  8
DEPA
100
AcDbPolyline
 90
        4
 70
     1
 43
0.0
 10
-0.1003590868596795
 20
-0.2074731311000377
 10
-0.1063117750675637
 20
-0.2067211316986537
 10
-0.1094488730635739
 20
-0.2315538193490028
 10
-0.1034961848556897
 20
-0.2323058187503868
1001
AcDbBlockRepETag
1070
     1
1071
      455
1005
12C5C
  0
LWPOLYLINE
  5
12C5D
330
12854
100
AcDbEntity
  8
DEPA
100
AcDbPolyline
 90
        4
 70
     1
 43
0.0
 10
-0.0878483438259004
 20
-0.2067211316986643
 10
-0.0938010320337846
 20
-0.2074731311000484
 10
-0.0906639340377673
 20
-0.232305818750401
 10
-0.0847112458298831
 20
-0.2315538193490134
1001
AcDbBlockRepETag
1070
     1
1071
      456
1005
12C5D
  0
LWPOLYLINE
  5
12C5E
330
12854
100
AcDbEntity
  8
DEPA
100
AcDbPolyline
 90
        4
 70
     1
 43
0.0
 10
-0.0759176634364529
 20
-0.2028814624678787
 10
-0.0814963223517857
 20
-0.2050902097839859
 10
-0.0722821437682733
 20
-0.2283625683410264
 10
-0.0667034848529404
 20
-0.2261538210249192
1001
AcDbBlockRepETag
1070
     1
1071
      457
1005
12C5E
  0
LWPOLYLINE
  5
12C5F
330
12854
100
AcDbEntity
  8
DEPA
100
AcDbPolyline
 90
        4
 70
     1
 43
0.0
 10
-0.0653166942182004
 20
-0.1961953839467938
 10
-0.0701707961844456
 20
-0.199722095460551
 10
-0.0554584977412098
 20
-0.2199718370463941
 10
-0.0506043957749647
 20
-0.2164451255326369
1001
AcDbBlockRepETag
1070
     1
1071
      458
1005
12C5F
  0
LWPOLYLINE
  5
12C60
330
12854
100
AcDbEntity
  8
DEPA
100
AcDbPolyline
 90
        4
 70
     1
 43
0.0
 10
-0.0567115340547098
 20
-0.1870830070385594
 10
-0.0605360779932021
 20
-0.1917060864952127
 10
-0.0412500875094786
 20
-0.2076608453726827
 10
-0.0374255435709863
 20
-0.2030377659160329
1001
AcDbBlockRepETag
1070
     1
1071
      459
1005
12C60
  0
LWPOLYLINE
  5
12C61
330
12854
100
AcDbEntity
  8
DEPA
100
AcDbPolyline
 90
        4
 70
     1
 43
0.0
 10
-0.0506428768066591
 20
-0.176116895897291
 10
-0.0531975525560533
 20
-0.1815458582120861
 10
-0.0305496797428582
 20
-0.1922031382034142
 10
-0.027995003993464
 20
-0.186774175888619
1001
AcDbBlockRepETag
1070
     1
1071
      460
1005
12C61
  0
LWPOLYLINE
  5
12C62
330
12854
100
AcDbEntity
  8
DEPA
100
AcDbPolyline
 90
        4
 70
     1
 43
0.0
 10
-0.047492038527917
 20
-0.1639860916165361
 10
-0.0486163264154236
 20
-0.1698798151209147
 10
-0.0240296204146553
 20
-0.1745699801295117
 10
-0.0229053325271416
 20
-0.1686762566251332
1001
AcDbBlockRepETag
1070
     1
1071
      461
1005
12C62
  0
LWPOLYLINE
  5
12C63
330
12854
100
AcDbEntity
  8
DEPA
100
AcDbPolyline
 90
        4
 70
     1
 43
0.0
 10
-0.0474569979754698
 20
-0.151452817243225
 10
-0.0470802548582903
 20
-0.1574409776137955
 10
-0.0220995888315478
 20
-0.1558693273229466
 10
-0.0224763319487273
 20
-0.1498811669523761
1001
AcDbBlockRepETag
1070
     1
1071
      462
1005
12C63
  0
LWPOLYLINE
  5
12C64
330
12854
100
AcDbEntity
  8
DEPA
100
AcDbPolyline
 90
        4
 70
     1
 43
0.0
 10
-0.0505399568761185
 20
-0.1393045845004153
 10
-0.0486858549098734
 20
-0.1450109235981856
 10
-0.0248808559760825
 20
-0.1372762105757914
 10
-0.0267349579423346
 20
-0.1315698714780211
1001
AcDbBlockRepETag
1070
     1
1071
      463
1005
12C64
  0
LWPOLYLINE
  5
12C65
330
12854
100
AcDbEntity
  8
DEPA
100
AcDbPolyline
 90
        4
 70
     1
 43
0.0
 10
-0.0565472015838076
 20
-0.1283047115293812
 10
-0.0533322408139334
 20
-0.1333706790823967
 10
-0.0321986646047741
 20
-0.1199589037939432
 10
-0.0354136253746482
 20
-0.1148929362409277
1001
AcDbBlockRepETag
1070
     1
1071
      464
1005
12C65
  0
LWPOLYLINE
  5
12C66
330
12854
100
AcDbEntity
  8
DEPA
100
AcDbPolyline
 90
        4
 70
     1
 43
0.0
 10
-0.0651012748204458
 20
-0.1191443608036167
 10
-0.0607274630559083
 20
-0.1232516434391897
 10
-0.0435932098884528
 20
-0.1050055170511044
 10
-0.0479670216529904
 20
-0.1008982344155314
1001
AcDbBlockRepETag
1070
     1
1071
      465
1005
12C66
  0
LWPOLYLINE
  5
12C67
330
12854
100
AcDbEntity
  8
DEPA
100
AcDbPolyline
 90
        4
 70
     1
 43
0.0
 10
-0.075664692704887
 20
-0.112399110848628
 10
-0.0704068526246253
 20
-0.1152896328932371
 10
-0.0583485306407674
 20
-0.0933556266310447
 10
-0.063606370721029
 20
-0.0904651045864356
1001
AcDbBlockRepETag
1070
     1
1071
      466
1005
12C67
  0
LWPOLYLINE
  5
12C68
330
12854
100
AcDbEntity
  8
DEPA
100
AcDbPolyline
 90
        4
 70
     1
 43
0.0
 10
-0.0875737168419342
 20
-0.1084927905263733
 10
-0.0817622178751627
 20
-0.1099849298493645
 10
-0.0755374957925419
 20
-0.0857412379941529
 10
-0.0813489947593134
 20
-0.0842490986711617
1001
AcDbBlockRepETag
1070
     1
1071
      467
1005
12C68
  0
LWPOLYLINE
  5
12C69
330
12854
100
AcDbEntity
  8
DEPA
100
AcDbPolyline
 90
        4
 70
     1
 43
0.0
 10
-0.1143003151866786
 20
-0.0794907042645825
 10
-0.1083967376550881
 20
-0.0784193628957901
 10
-0.1128660269322985
 20
-0.0537915490843091
 10
-0.1187696044638891
 20
-0.0548628904531015
1001
AcDbBlockRepETag
1070
     1
1071
      468
1005
12C69
  0
LWPOLYLINE
  5
12C6A
330
12854
100
AcDbEntity
  8
DEPA
100
AcDbPolyline
 90
        4
 70
     1
 43
0.0
 10
-0.1279670977382814
 20
-0.0838204390942821
 10
-0.1223496885144435
 20
-0.0817121901497942
 10
-0.13114462043416
 20
-0.0582781778534773
 10
-0.1367620296579979
 20
-0.0603864267979653
1001
AcDbBlockRepETag
1070
     1
1071
      469
1005
12C6A
  0
LWPOLYLINE
  5
12C6B
330
12854
100
AcDbEntity
  8
DEPA
100
AcDbPolyline
 90
        4
 70
     1
 43
0.0
 10
-0.1406411454652421
 20
-0.0905208915583131
 10
-0.1354904527036318
 20
-0.0874434958938793
 10
-0.1483283509174491
 20
-0.0659564735494982
 10
-0.1534790436790665
 20
-0.0690338692139321
1001
AcDbBlockRepETag
1070
     1
1071
      470
1005
12C6B
  0
LWPOLYLINE
  5
12C6C
330
12854
100
AcDbEntity
  8
DEPA
100
AcDbPolyline
 90
        4
 70
     1
 43
0.0
 10
-0.151915104045397
 20
-0.099376703601326
 10
-0.1473966752493716
 20
-0.095429071245686
 10
-0.1638649191456487
 20
-0.0765796494309719
 10
-0.1683833479416741
 20
-0.0805272817866119
1001
AcDbBlockRepETag
1070
     1
1071
      471
1005
12C6C
  0
LWPOLYLINE
  5
12C6D
330
12854
100
AcDbEntity
  8
DEPA
100
AcDbPolyline
 90
        4
 70
     1
 43
0.0
 10
-0.1614266191737208
 20
-0.1101032421376828
 10
-0.1576856803625724
 20
-0.1054122532428749
 10
-0.1772549670323578
 20
-0.0898062678843061
 10
-0.1809959058435133
 20
-0.094497256779114
1001
AcDbBlockRepETag
1070
     1
1071
      472
1005
12C6D
  0
LWPOLYLINE
  5
12C6E
330
12854
100
AcDbEntity
  8
DEPA
100
AcDbPolyline
 90
        4
 70
     1
 43
0.0
 10
-0.1688699829278981
 20
-0.1223557473929766
 10
-0.1660267709530636
 20
-0.1170721742018408
 10
-0.1880681274211362
 20
-0.1052112145094881
 10
-0.1909113393959707
 20
-0.1104947877006275
1001
AcDbBlockRepETag
1070
     1
1071
      473
1005
12C6E
  0
LWPOLYLINE
  5
12C6F
330
12854
100
AcDbEntity
  8
DEPA
100
AcDbPolyline
 90
        4
 70
     1
 43
0.0
 10
-0.174005959472435
 20
-0.1357404137669391
 10
-0.17215185750619
 20
-0.1300340746691688
 10
-0.1959568564399738
 20
-0.1222993616467782
 10
-0.1978109584062189
 20
-0.1280057007445485
1001
AcDbBlockRepETag
1070
     1
1071
      474
1005
12C6F
  0
LWPOLYLINE
  5
12C70
330
12854
100
AcDbEntity
  8
DEPA
100
AcDbPolyline
 90
        4
 70
     1
 43
0.0
 10
-0.1766694742953199
 20
-0.1498270470693477
 10
-0.1758640747004101
 20
-0.1438813484987413
 10
-0.2006676038473607
 20
-0.140521482186994
 10
-0.2014730034422634
 20
-0.1464671807576003
1001
AcDbBlockRepETag
1070
     1
1071
      475
1005
12C70
  0
LWPOLYLINE
  5
12C71
330
12854
100
AcDbEntity
  8
DEPA
100
AcDbPolyline
 90
        4
 70
     1
 43
0.0
 10
-0.176774919838568
 20
-0.164162891315339
 10
-0.1770441088206702
 20
-0.1581689329160874
 10
-0.2020489623455823
 20
-0.1592919021827477
 10
-0.2017797733634801
 20
-0.1652858605819993
1001
AcDbBlockRepETag
1070
     1
1071
      476
1005
12C71
  0
LWPOLYLINE
  5
12C72
330
12854
100
AcDbEntity
  8
DEPA
100
AcDbPolyline
 90
        4
 70
     1
 43
0.0
 10
-0.1743189069956763
 20
-0.1782871806752944
 10
-0.1756540325994145
 20
-0.1724376132022023
 10
-0.2000565339359461
 20
-0.1780073248910661
 10
-0.1987214083322009
 20
-0.1838568923641581
1001
AcDbBlockRepETag
1070
     1
1071
      477
1005
12C72
  0
LWPOLYLINE
  5
12C73
330
12854
100
AcDbEntity
  8
DEPA
100
AcDbPolyline
 90
        4
 70
     1
 43
0.0
 10
-0.1693803740402266
 20
-0.1917459488676734
 10
-0.1717385242301468
 20
-0.1862287822323658
 10
-0.1947543569068948
 20
-0.1960662212269675
 10
-0.1923962067169675
 20
-0.201583387862275
1001
AcDbBlockRepETag
1070
     1
1071
      478
1005
12C73
  0
LWPOLYLINE
  5
12C74
330
12854
100
AcDbEntity
  8
DEPA
100
AcDbPolyline
 90
        4
 70
     1
 43
0.0
 10
-0.1621180494848424
 20
-0.2041066200088615
 10
-0.1654234313735579
 20
-0.199099180486531
 10
-0.1863128475907949
 20
-0.2128881634033242
 10
-0.1830074657020795
 20
-0.2178956029256476
1001
AcDbBlockRepETag
1070
     1
1071
      479
1005
12C74
  0
LWPOLYLINE
  5
12C75
330
12854
100
AcDbEntity
  8
DEPA
100
AcDbPolyline
 90
        4
 70
     1
 43
0.0
 10
-0.1527653504161996
 20
-0.2149719119579707
 10
-0.1569117263101241
 20
-0.2106351427750077
 10
-0.1750033230427554
 20
-0.2279324803574276
 10
-0.1708569471488381
 20
-0.2322692495403835
1001
AcDbBlockRepETag
1070
     1
1071
      480
1005
12C75
  0
LWPOLYLINE
  5
12C76
330
12854
100
AcDbEntity
  8
DEPA
100
AcDbPolyline
 90
        4
 70
     1
 43
0.0
 10
-0.1416228802777972
 20
-0.2239926052917873
 10
-0.1464769822440495
 20
-0.2204658937780373
 10
-0.1611892806872852
 20
-0.2407156353638804
 10
-0.156335178721033
 20
-0.2442423468776305
1001
AcDbBlockRepETag
1070
     1
1071
      481
1005
12C76
  0
LWPOLYLINE
  5
12C77
330
12854
100
AcDbEntity
  8
DEPA
100
AcDbPolyline
 90
        4
 70
     1
 43
0.0
 10
-0.1290487672279177
 20
-0.2308787675043113
 10
-0.1344545804353281
 20
-0.2282754650696113
 10
-0.1453147152118781
 20
-0.2508267673027724
 10
-0.1399089020044606
 20
-0.2534300697374796
1001
AcDbBlockRepETag
1070
     1
1071
      482
1005
12C77
  0
LWPOLYLINE
  5
12C78
330
12854
100
AcDbEntity
  8
DEPA
100
AcDbPolyline
 90
        4
 70
     1
 43
0.0
 10
-0.1154471536060164
 20
-0.2354090716760595
 10
-0.1212309307701922
 20
-0.2338128506026571
 10
-0.1278898482125861
 20
-0.2579408960740928
 10
-0.1221060710484103
 20
-0.2595371171474952
1001
AcDbBlockRepETag
1070
     1
1071
      483
1005
12C78
  0
LWPOLYLINE
  5
12C79
330
12854
100
AcDbEntity
  8
DEPA
100
AcDbPolyline
 90
        4
 70
     1
 43
0.0
 10
-0.1012552064653356
 20
-0.2374379101034201
 10
-0.1072310522293058
 20
-0.2369000742499985
 10
-0.1094747292519749
 20
-0.2618293677256318
 10
-0.1034988834880046
 20
-0.2623672035790534
1001
AcDbBlockRepETag
1070
     1
1071
      484
1005
12C79
  0
LWPOLYLINE
  5
12C7A
330
12854
100
AcDbEntity
  8
DEPA
100
AcDbPolyline
 90
        4
 70
     1
 43
0.0
 10
-0.0869290666641582
 20
-0.2369000742499985
 10
-0.0929049124281356
 20
-0.2374379101034201
 10
-0.0906612354054666
 20
-0.2623672035790534
 10
-0.0846853896414892
 20
-0.2618293677256318
1001
AcDbBlockRepETag
1070
     1
1071
      485
1005
12C7A
  0
LWPOLYLINE
  5
12C7B
330
12854
100
AcDbEntity
  8
DEPA
100
AcDbPolyline
 90
        4
 70
     1
 43
0.0
 10
-0.0729291881232648
 20
-0.2338128506026678
 10
-0.0787129652874406
 20
-0.2354090716760702
 10
-0.0720540478450396
 20
-0.2595371171474987
 10
-0.0662702706808709
 20
-0.2579408960740999
1001
AcDbBlockRepETag
1070
     1
1071
      486
1005
12C7B
  0
LWPOLYLINE
  5
12C7C
330
12854
100
AcDbEntity
  8
DEPA
100
AcDbPolyline
 90
        4
 70
     1
 43
0.0
 10
-0.0597055384581147
 20
-0.2282754650696042
 10
-0.0651113516655322
 20
-0.2308787675043113
 10
-0.0542512168889822
 20
-0.2534300697374725
 10
-0.0488454036815647
 20
-0.2508267673027653
1001
AcDbBlockRepETag
1070
     1
1071
      487
1005
12C7C
  0
LWPOLYLINE
  5
12C7D
330
12854
100
AcDbEntity
  8
DEPA
100
AcDbPolyline
 90
        4
 70
     1
 43
0.0
 10
-0.0476831366494146
 20
-0.2204658937780408
 10
-0.0525372386156668
 20
-0.223992605291798
 10
-0.037824940172424
 20
-0.2442423468776411
 10
-0.0329708382061789
 20
-0.240715635363884
1001
AcDbBlockRepETag
1070
     1
1071
      488
1005
12C7D
  0
LWPOLYLINE
  5
12C7E
330
12854
100
AcDbEntity
  8
DEPA
100
AcDbPolyline
 90
        4
 70
     1
 43
0.0
 10
-0.0372483925833329
 20
-0.2106351427750148
 10
-0.0413947684772573
 20
-0.2149719119579778
 10
-0.0233031717446188
 20
-0.2322692495403942
 10
-0.0191567958507015
 20
-0.2279324803574276
1001
AcDbBlockRepETag
1070
     1
1071
      489
1005
12C7E
  0
LWPOLYLINE
  5
12C7F
330
12854
100
AcDbEntity
  8
DEPA
100
AcDbPolyline
 90
        4
 70
     1
 43
0.0
 10
-0.028736687519892
 20
-0.199099180486531
 10
-0.0320420694086145
 20
-0.2041066200088579
 10
-0.0111526531913775
 20
-0.2178956029256476
 10
-0.0078472713026621
 20
-0.2128881634033171
1001
AcDbBlockRepETag
1070
     1
1071
      490
1005
12C7F
  0
LWPOLYLINE
  5
12C80
330
12854
100
AcDbEntity
  8
DEPA
100
AcDbPolyline
 90
        4
 70
     1
 43
0.0
 10
-0.0224215946633102
 20
-0.1862287822323694
 10
-0.0247797448532303
 20
-0.1917459488676769
 10
-0.0017639121764894
 20
-0.2015833878622786
 10
0.0005942380134307
 20
-0.196066221226971
1001
AcDbBlockRepETag
1070
     1
1071
      491
1005
12C80
  0
LWPOLYLINE
  5
12C81
330
12854
100
AcDbEntity
  8
DEPA
100
AcDbPolyline
 90
        4
 70
     1
 43
0.0
 10
-0.0185060862940425
 20
-0.1724376132022058
 10
-0.0198412118977807
 20
-0.1782871806752979
 10
0.004561289438751
 20
-0.1838568923641581
 10
0.0058964150424892
 20
-0.1780073248910661
1001
AcDbBlockRepETag
1070
     1
1071
      492
1005
12C81
  0
LWPOLYLINE
  5
12C82
330
12854
100
AcDbEntity
  8
DEPA
100
AcDbPolyline
 90
        4
 70
     1
 43
0.0
 10
-0.0171160100727867
 20
-0.158168932916098
 10
-0.017385199054889
 20
-0.1641628913153426
 10
0.0076196544700231
 20
-0.16528586058201
 10
0.0078888434521254
 20
-0.1592919021827654
1001
AcDbBlockRepETag
1070
     1
1071
      493
1005
12C82
  0
LWPOLYLINE
  5
12C83
330
12854
100
AcDbEntity
  8
DEPA
100
AcDbPolyline
 90
        4
 70
     1
 43
0.0
 10
-0.018296044193054
 20
-0.1438813484987307
 10
-0.0174906445981513
 20
-0.149827047069337
 10
0.0073128845487993
 20
-0.1464671807575897
 10
0.0065074849538966
 20
-0.1405214821869833
1001
AcDbBlockRepETag
1070
     1
1071
      494
1005
12C83
  0
LWPOLYLINE
  5
12C84
330
12854
100
AcDbEntity
  8
DEPA
100
AcDbPolyline
 90
        4
 70
     1
 43
0.0
 10
-0.0220082613872741
 20
-0.1300340746691617
 10
-0.020154159421022
 20
-0.135740413766932
 10
0.0036508395127619
 20
-0.128005700744545
 10
0.0017967375465169
 20
-0.1222993616467747
1001
AcDbBlockRepETag
1070
     1
1071
      495
1005
12C84
  0
LWPOLYLINE
  5
12C85
330
12854
100
AcDbEntity
  8
DEPA
100
AcDbPolyline
 90
        4
 70
     1
 43
0.0
 10
-0.0281333479404005
 20
-0.1170721742018372
 10
-0.0252901359655589
 20
-0.1223557473929873
 10
-0.0032487794974934
 20
-0.110494787700631
 10
-0.0060919914723279
 20
-0.1052112145094881
1001
AcDbBlockRepETag
1070
     1
1071
      496
1005
12C85
  0
LWPOLYLINE
  5
12C86
330
12854
100
AcDbEntity
  8
DEPA
100
AcDbPolyline
 90
        4
 70
     1
 43
0.0
 10
-0.0364744385308846
 20
-0.1054122532428749
 10
-0.0327334997197362
 20
-0.1101032421376828
 10
-0.0131642130499437
 20
-0.094497256779114
 10
-0.0169051518610992
 20
-0.0898062678843061
1001
AcDbBlockRepETag
1070
     1
1071
      497
1005
12C86
  0
LWPOLYLINE
  5
12C87
330
12854
100
AcDbEntity
  8
DEPA
100
AcDbPolyline
 90
        4
 70
     1
 43
0.0
 10
-0.0467634436440854
 20
-0.0954290712456896
 10
-0.04224501484806
 20
-0.0993767036013296
 10
-0.02577677095179
 20
-0.0805272817866154
 10
-0.0302951997478083
 20
-0.0765796494309825
1001
AcDbBlockRepETag
1070
     1
1071
      498
1005
12C87
  0
LWPOLYLINE
  5
12C88
330
12854
100
AcDbEntity
  8
DEPA
100
AcDbPolyline
 90
        4
 70
     1
 43
0.0
 10
-0.0586696661898181
 20
-0.0874434958938793
 10
-0.0535189734282078
 20
-0.0905208915583131
 10
-0.0406810752143905
 20
-0.0690338692139392
 10
-0.0458317679760008
 20
-0.0659564735494982
1001
AcDbBlockRepETag
1070
     1
1071
      499
1005
12C88
  0
LWPOLYLINE
  5
12C89
330
12854
100
AcDbEntity
  8
DEPA
100
AcDbPolyline
 90
        4
 70
     1
 43
0.0
 10
-0.0718104303790135
 20
-0.0817121901497942
 10
-0.0661930211551827
 20
-0.0838204390942821
 10
-0.0573980892354662
 20
-0.0603864267979617
 10
-0.0630154984593041
 20
-0.0582781778534738
1001
AcDbBlockRepETag
1070
     1
1071
      500
1005
12C89
  0
LWPOLYLINE
  5
12C8A
330
12854
100
AcDbEntity
  8
DEPA
100
AcDbPolyline
 90
        4
 70
     1
 43
0.0
 10
-0.085763381238376
 20
-0.0784193628957901
 10
-0.0798598037067784
 20
-0.0794907042645825
 10
-0.0753905144295608
 20
-0.0548628904531015
 10
-0.0812940919611585
 20
-0.0537915490843091
1001
AcDbBlockRepETag
1070
     1
1071
      501
1005
12C8A
  0
LWPOLYLINE
  5
12C8B
330
12854
100
AcDbEntity
  8
DEPA
100
AcDbPolyline
 90
        4
 70
     1
 43
0.0
 10
-0.1138317690814112
 20
-0.0489135205485063
 10
-0.1078790808735199
 20
-0.0481615211471223
 10
-0.1110161788695372
 20
-0.0233288334967767
 10
-0.1169688670774285
 20
-0.0240808328981608
1001
AcDbBlockRepETag
1070
     1
1071
      502
1005
12C8B
  0
LWPOLYLINE
  5
12C8C
330
12854
100
AcDbEntity
  8
DEPA
100
AcDbPolyline
 90
        4
 70
     1
 43
0.0
 10
-0.1273192942481778
 20
-0.0518699401816427
 10
-0.1215077952814063
 20
-0.0503778008586551
 10
-0.1277325173640271
 20
-0.0261341090034435
 10
-0.1335440163307986
 20
-0.0276262483264311
1001
AcDbBlockRepETag
1070
     1
1071
      503
1005
12C8C
  0
LWPOLYLINE
  5
12C8D
330
12854
100
AcDbEntity
  8
DEPA
100
AcDbPolyline
 90
        4
 70
     1
 43
0.0
 10
-0.1403299286180761
 20
-0.0564934827048624
 10
-0.1347512697027504
 20
-0.0542847353887588
 10
-0.14396544828627
 20
-0.0310123768317148
 10
-0.1495441072015957
 20
-0.0332211241478255
1001
AcDbBlockRepETag
1070
     1
1071
      504
1005
12C8D
  0
LWPOLYLINE
  5
12C8E
330
12854
100
AcDbEntity
  8
DEPA
100
AcDbPolyline
 90
        4
 70
     1
 43
0.0
 10
-0.1526584867149303
 20
-0.0627112320905994
 10
-0.1474006466346687
 20
-0.0598207100459902
 10
-0.1594589686185337
 20
-0.0378867037838013
 10
-0.1647168086987953
 20
-0.0407772258284105
1001
AcDbBlockRepETag
1070
     1
1071
      505
1005
12C8E
  0
LWPOLYLINE
  5
12C8F
330
12854
100
AcDbEntity
  8
DEPA
100
AcDbPolyline
 90
        4
 70
     1
 43
0.0
 10
-0.164110539812814
 20
-0.0704251307167425
 10
-0.1592564378465688
 20
-0.0668984192029889
 10
-0.1739687362897975
 20
-0.0466486776171458
 10
-0.1788228382560497
 20
-0.0501753891308994
1001
AcDbBlockRepETag
1070
     1
1071
      506
1005
12C8F
  0
LWPOLYLINE
  5
12C90
330
12854
100
AcDbEntity
  8
DEPA
100
AcDbPolyline
 90
        4
 70
     1
 43
0.0
 10
-0.1745054821932648
 20
-0.079513525793903
 10
-0.1701316704287343
 20
-0.07540624315833
 10
-0.1872659235961898
 20
-0.0571601167702482
 10
-0.1916397353607202
 20
-0.0612673994058213
1001
AcDbBlockRepETag
1070
     1
1071
      507
1005
12C90
  0
LWPOLYLINE
  5
12C91
330
12854
100
AcDbEntity
  8
DEPA
100
AcDbPolyline
 90
        4
 70
     1
 43
0.0
 10
-0.1836793794052944
 20
-0.0898330879025586
 10
-0.1798548354668021
 20
-0.0852100084459018
 10
-0.1991408259505185
 20
-0.0692552495684318
 10
-0.2029653698890108
 20
-0.0738783290250851
1001
AcDbBlockRepETag
1070
     1
1071
      508
1005
12C91
  0
LWPOLYLINE
  5
12C92
330
12854
100
AcDbEntity
  8
DEPA
100
AcDbPolyline
 90
        4
 70
     1
 43
0.0
 10
-0.191487553609651
 20
-0.1012210713836517
 10
-0.1882725928397697
 20
-0.0961551038306361
 10
-0.2094061690489362
 20
-0.0827433285421826
 10
-0.2126211298188032
 20
-0.0878092960951982
1001
AcDbBlockRepETag
1070
     1
1071
      509
1005
12C92
  0
LWPOLYLINE
  5
12C93
330
12854
100
AcDbEntity
  8
DEPA
100
AcDbPolyline
 90
        4
 70
     1
 43
0.0
 10
-0.1978068652347495
 20
-0.1134978809348404
 10
-0.1952521894853625
 20
-0.1080689186200452
 10
-0.2179000622985576
 20
-0.0974116386287172
 10
-0.2204547380479447
 20
-0.1028406009435123
1001
AcDbBlockRepETag
1070
     1
1071
      510
1005
12C93
  0
LWPOLYLINE
  5
12C94
330
12854
100
AcDbEntity
  8
DEPA
100
AcDbPolyline
 90
        4
 70
     1
 43
0.0
 10
-0.2025376549613007
 20
-0.1264699039356891
 10
-0.2006835529950415
 20
-0.1207635648379188
 10
-0.2244885519288253
 20
-0.1130288518155318
 10
-0.2263426538950846
 20
-0.1187351909133021
1001
AcDbBlockRepETag
1070
     1
1071
      511
1005
12C94
  0
LWPOLYLINE
  5
12C95
330
12854
100
AcDbEntity
  8
DEPA
100
AcDbPolyline
 90
        4
 70
     1
 43
0.0
 10
-0.2056053154092616
 20
-0.1399325638343569
 10
-0.2044810275217479
 20
-0.1340388403299855
 10
-0.2290677335225233
 20
-0.1293486753213919
 10
-0.230192021410037
 20
-0.1352423988257634
1001
AcDbBlockRepETag
1070
     1
1071
      512
1005
12C95
  0
LWPOLYLINE
  5
12C96
330
12854
100
AcDbEntity
  8
DEPA
100
AcDbPolyline
 90
        4
 70
     1
 43
0.0
 10
-0.2069614677408573
 20
-0.1536735464420396
 10
-0.2065847246236778
 20
-0.1476853860714691
 10
-0.2315653906504202
 20
-0.1461137357806272
 10
-0.2319421337675998
 20
-0.1521018961511977
1001
AcDbBlockRepETag
1070
     1
1071
      513
1005
12C96
  0
LWPOLYLINE
  5
12C97
330
12854
100
AcDbEntity
  8
DEPA
100
AcDbPolyline
 90
        4
 70
     1
 43
0.0
 10
-0.2065847246236778
 20
-0.1674761482545684
 10
-0.2069614677408573
 20
-0.1614879878839979
 10
-0.2319421337675998
 20
-0.1630596381748468
 10
-0.2315653906504202
 20
-0.1690477985454173
1001
AcDbBlockRepETag
1070
     1
1071
      514
1005
12C97
  0
LWPOLYLINE
  5
12C98
330
12854
100
AcDbEntity
  8
DEPA
100
AcDbPolyline
 90
        4
 70
     1
 43
0.0
 10
-0.2044810275217479
 20
-0.1811226939960555
 10
-0.2056053154092687
 20
-0.175228970491677
 10
-0.230192021410037
 20
-0.179919135500274
 10
-0.2290677335225233
 20
-0.1858128590046526
1001
AcDbBlockRepETag
1070
     1
1071
      515
1005
12C98
  0
LWPOLYLINE
  5
12C99
330
12854
100
AcDbEntity
  8
DEPA
100
AcDbPolyline
 90
        4
 70
     1
 43
0.0
 10
-0.2006835529950415
 20
-0.1943979694881186
 10
-0.2025376549612865
 20
-0.1886916303903483
 10
-0.2263426538950775
 20
-0.1964263434127424
 10
-0.2244885519288253
 20
-0.2021326825105127
1001
AcDbBlockRepETag
1070
     1
1071
      516
1005
12C99
  0
LWPOLYLINE
  5
12C9A
330
12854
100
AcDbEntity
  8
DEPA
100
AcDbPolyline
 90
        4
 70
     1
 43
0.0
 10
-0.1952521894853554
 20
-0.207092615705978
 10
-0.1978068652347424
 20
-0.2016636533911829
 10
-0.2204547380479447
 20
-0.212320933382518
 10
-0.2179000622985505
 20
-0.2177498956973132
1001
AcDbBlockRepETag
1070
     1
1071
      517
1005
12C9A
  0
LWPOLYLINE
  5
12C9B
330
12854
100
AcDbEntity
  8
DEPA
100
AcDbPolyline
 90
        4
 70
     1
 43
0.0
 10
-0.1882725928397768
 20
-0.2190064304953871
 10
-0.1914875536096439
 20
-0.2139404629423787
 10
-0.2126211298188103
 20
-0.2273522382308322
 10
-0.2094061690489291
 20
-0.2324182057838406
1001
AcDbBlockRepETag
1070
     1
1071
      518
1005
12C9B
  0
LWPOLYLINE
  5
12C9C
330
12854
100
AcDbEntity
  8
DEPA
100
AcDbPolyline
 90
        4
 70
     1
 43
0.0
 10
-0.179854835466795
 20
-0.2299515258801286
 10
-0.1836793794052873
 20
-0.2253284464234788
 10
-0.2029653698890108
 20
-0.2412832053009488
 10
-0.1991408259505185
 20
-0.2459062847576057
1001
AcDbBlockRepETag
1070
     1
1071
      519
1005
12C9C
  0
LWPOLYLINE
  5
12C9D
330
12854
100
AcDbEntity
  8
DEPA
100
AcDbPolyline
 90
        4
 70
     1
 43
0.0
 10
-0.1701316704287343
 20
-0.2397552911677003
 10
-0.1745054821932577
 20
-0.2356480085321273
 10
-0.1916397353607131
 20
-0.2538941349202126
 10
-0.1872659235961898
 20
-0.2580014175557856
1001
AcDbBlockRepETag
1070
     1
1071
      520
1005
12C9D
  0
LWPOLYLINE
  5
12C9E
330
12854
100
AcDbEntity
  8
DEPA
100
AcDbPolyline
 90
        4
 70
     1
 43
0.0
 10
-0.1592564378465759
 20
-0.2482631151230414
 10
-0.1641105398128211
 20
-0.2447364036092843
 10
-0.1788228382560568
 20
-0.2649861451951274
 10
-0.1739687362898046
 20
-0.2685128567088846
1001
AcDbBlockRepETag
1070
     1
1071
      521
1005
12C9E
  0
LWPOLYLINE
  5
12C9F
330
12854
100
AcDbEntity
  8
DEPA
100
AcDbPolyline
 90
        4
 70
     1
 43
0.0
 10
-0.1474006466346687
 20
-0.2553408242800437
 10
-0.1526584867149303
 20
-0.2524503022354345
 10
-0.1647168086987953
 20
-0.2743843084976198
 10
-0.1594589686185337
 20
-0.277274830542229
1001
AcDbBlockRepETag
1070
     1
1071
      522
1005
12C9F
  0
LWPOLYLINE
  5
12CA0
330
12854
100
AcDbEntity
  8
DEPA
100
AcDbPolyline
 90
        4
 70
     1
 43
0.0
 10
-0.1347512697027575
 20
-0.2608767989372787
 10
-0.1403299286180832
 20
-0.258668051621175
 10
-0.1495441072015957
 20
-0.2819404101782119
 10
-0.14396544828627
 20
-0.2841491574943156
1001
AcDbBlockRepETag
1070
     1
1071
      523
1005
12CA0
  0
LWPOLYLINE
  5
12CA1
330
12854
100
AcDbEntity
  8
DEPA
100
AcDbPolyline
 90
        4
 70
     1
 43
0.0
 10
-0.1215077952814063
 20
-0.2647837334673859
 10
-0.1273192942481778
 20
-0.2632915941443947
 10
-0.1335440163307986
 20
-0.2875352859996063
 10
-0.1277325173640271
 20
-0.2890274253225975
1001
AcDbBlockRepETag
1070
     1
1071
      524
1005
12CA1
  0
LWPOLYLINE
  5
12CA2
330
12854
100
AcDbEntity
  8
DEPA
100
AcDbPolyline
 90
        4
 70
     1
 43
0.0
 10
-0.107879080873527
 20
-0.2670000131789187
 10
-0.1138317690814112
 20
-0.2662480137775312
 10
-0.1169688670774214
 20
-0.2910807014278838
 10
-0.1110161788695372
 20
-0.2918327008292678
1001
AcDbBlockRepETag
1070
     1
1071
      525
1005
12CA2
  0
LWPOLYLINE
  5
12CA3
330
12854
100
AcDbEntity
  8
DEPA
100
AcDbPolyline
 90
        4
 70
     1
 43
0.0
 10
-0.0940800594467284
 20
-0.2674906860168882
 10
-0.1000800594467286
 20
-0.2674906860168882
 10
-0.1000800594467286
 20
-0.2925207431437968
 10
-0.0940800594467284
 20
-0.2925207431437968
1001
AcDbBlockRepETag
1070
     1
1071
      526
1005
12CA3
  0
LWPOLYLINE
  5
12CA4
330
12854
100
AcDbEntity
  8
DEPA
100
AcDbPolyline
 90
        4
 70
     1
 43
0.0
 10
-0.0803283498120315
 20
-0.2662480137775276
 10
-0.0862810380199228
 20
-0.2670000131789116
 10
-0.0831439400239056
 20
-0.2918327008292643
 10
-0.0771912518160143
 20
-0.2910807014278767
1001
AcDbBlockRepETag
1070
     1
1071
      527
1005
12CA4
  0
LWPOLYLINE
  5
12CA5
330
12854
100
AcDbEntity
  8
DEPA
100
AcDbPolyline
 90
        4
 70
     1
 43
0.0
 10
-0.066840824645265
 20
-0.2632915941443947
 10
-0.0726523236120365
 20
-0.2647837334673824
 10
-0.0664276015294156
 20
-0.2890274253225939
 10
-0.0606161025626442
 20
-0.2875352859996063
1001
AcDbBlockRepETag
1070
     1
1071
      528
1005
12CA5
  0
LWPOLYLINE
  5
12CA6
330
12854
100
AcDbEntity
  8
DEPA
100
AcDbPolyline
 90
        4
 70
     1
 43
0.0
 10
-0.0538301902753879
 20
-0.258668051621175
 10
-0.0594088491907137
 20
-0.2608767989372858
 10
-0.0501946706072012
 20
-0.2841491574943227
 10
-0.0446160116918684
 20
-0.2819404101782119
1001
AcDbBlockRepETag
1070
     1
1071
      529
1005
12CA6
  0
LWPOLYLINE
  5
12CA7
330
12854
100
AcDbEntity
  8
DEPA
100
AcDbPolyline
 90
        4
 70
     1
 43
0.0
 10
-0.0415016321785196
 20
-0.2524503022354345
 10
-0.0467594722587883
 20
-0.2553408242800437
 10
-0.0347011502749233
 20
-0.2772748305422326
 10
-0.0294433101946616
 20
-0.2743843084976234
1001
AcDbBlockRepETag
1070
     1
1071
      530
1005
12CA7
  0
LWPOLYLINE
  5
12CA8
330
12854
100
AcDbEntity
  8
DEPA
100
AcDbPolyline
 90
        4
 70
     1
 43
0.0
 10
-0.0300495790806501
 20
-0.2447364036092878
 10
-0.0349036810468952
 20
-0.248263115123045
 10
-0.0201913826036595
 20
-0.2685128567088917
 10
-0.0153372806374144
 20
-0.2649861451951345
1001
AcDbBlockRepETag
1070
     1
1071
      531
1005
12CA8
  0
LWPOLYLINE
  5
12CA9
330
12854
100
AcDbEntity
  8
DEPA
100
AcDbPolyline
 90
        4
 70
     1
 43
0.0
 10
-0.0196546367001922
 20
-0.2356480085321344
 10
-0.0240284484647155
 20
-0.2397552911677074
 10
-0.0068941952972601
 20
-0.2580014175557892
 10
-0.0025203835327368
 20
-0.2538941349202162
1001
AcDbBlockRepETag
1070
     1
1071
      532
1005
12CA9
  0
LWPOLYLINE
  5
12CAA
330
12854
100
AcDbEntity
  8
DEPA
100
AcDbPolyline
 90
        4
 70
     1
 43
0.0
 10
-0.0104807394881554
 20
-0.2253284464234788
 10
-0.0143052834266477
 20
-0.2299515258801357
 10
0.0049807070570616
 20
-0.2459062847576057
 10
0.0088052509955538
 20
-0.2412832053009488
1001
AcDbBlockRepETag
1070
     1
1071
      533
1005
12CAA
  0
LWPOLYLINE
  5
12CAB
330
12854
100
AcDbEntity
  8
DEPA
100
AcDbPolyline
 90
        4
 70
     1
 43
0.0
 10
-0.0026725652838202
 20
-0.2139404629423787
 10
-0.0058875260536944
 20
-0.2190064304953907
 10
0.015246050155465
 20
-0.2324182057838442
 10
0.0184610109253392
 20
-0.2273522382308322
1001
AcDbBlockRepETag
1070
     1
1071
      534
1005
12CAB
  0
LWPOLYLINE
  5
12CAC
330
12854
100
AcDbEntity
  8
DEPA
100
AcDbPolyline
 90
        4
 70
     1
 43
0.0
 10
0.0036467463412997
 20
-0.20166365339119
 10
0.0010920705919126
 20
-0.2070926157059887
 10
0.0237399434051078
 20
-0.2177498956973167
 10
0.0262946191544948
 20
-0.2123209333825216
1001
AcDbBlockRepETag
1070
     1
1071
      535
1005
12CAC
  0
LWPOLYLINE
  5
12CAD
330
12854
100
AcDbEntity
  8
DEPA
100
AcDbPolyline
 90
        4
 70
     1
 43
0.0
 10
0.0083775360678438
 20
-0.1886916303903483
 10
0.0065234341015916
 20
-0.1943979694881186
 10
0.0303284330353755
 20
-0.2021326825105092
 10
0.0321825350016276
 20
-0.1964263434127389
1001
AcDbBlockRepETag
1070
     1
1071
      536
1005
12CAD
  0
LWPOLYLINE
  5
12CAE
330
12854
100
AcDbEntity
  8
DEPA
100
AcDbPolyline
 90
        4
 70
     1
 43
0.0
 10
0.0114451965158118
 20
-0.1752289704916805
 10
0.010320908628291
 20
-0.1811226939960519
 10
0.0349076146290663
 20
-0.185812859004649
 10
0.0360319025165801
 20
-0.1799191355002776
1001
AcDbBlockRepETag
1070
     1
1071
      537
1005
12CAE
  0
LWPOLYLINE
  5
12CAF
330
12854
100
AcDbEntity
  8
DEPA
100
AcDbPolyline
 90
        4
 70
     1
 43
0.0
 10
0.0128013488474004
 20
-0.1614879878839872
 10
0.0124246057302209
 20
-0.1674761482545577
 10
0.0374052717569704
 20
-0.1690477985453995
 10
0.0377820148741428
 20
-0.163059638174829
1001
AcDbBlockRepETag
1070
     1
1071
      538
1005
12CAF
  0
LWPOLYLINE
  5
12CB0
330
12854
100
AcDbEntity
  8
DEPA
100
AcDbPolyline
 90
        4
 70
     1
 43
0.0
 10
0.0124246057302209
 20
-0.1476853860714726
 10
0.0128013488474004
 20
-0.1536735464420431
 10
0.0377820148741428
 20
-0.1521018961511942
 10
0.0374052717569704
 20
-0.1461137357806237
1001
AcDbBlockRepETag
1070
     1
1071
      539
1005
12CB0
  0
LWPOLYLINE
  5
12CB1
330
12854
100
AcDbEntity
  8
DEPA
100
AcDbPolyline
 90
        4
 70
     1
 43
0.0
 10
0.010320908628291
 20
-0.1340388403299784
 10
0.0114451965158118
 20
-0.1399325638343498
 10
0.0360319025165801
 20
-0.1352423988257598
 10
0.0349076146290663
 20
-0.1293486753213884
1001
AcDbBlockRepETag
1070
     1
1071
      540
1005
12CB1
  0
LWPOLYLINE
  5
12CB2
330
12854
100
AcDbEntity
  8
DEPA
100
AcDbPolyline
 90
        4
 70
     1
 43
0.0
 10
0.0065234341015845
 20
-0.1207635648379153
 10
0.0083775360678366
 20
-0.1264699039356856
 10
0.0321825350016205
 20
-0.1187351909132985
 10
0.0303284330353684
 20
-0.1130288518155282
1001
AcDbBlockRepETag
1070
     1
1071
      541
1005
12CB2
  0
LWPOLYLINE
  5
12CB3
330
12854
100
AcDbEntity
  8
DEPA
100
AcDbPolyline
 90
        4
 70
     1
 43
0.0
 10
0.0010920705918984
 20
-0.1080689186200416
 10
0.0036467463412926
 20
-0.1134978809348439
 10
0.0262946191544877
 20
-0.1028406009435159
 10
0.0237399434050936
 20
-0.0974116386287136
1001
AcDbBlockRepETag
1070
     1
1071
      542
1005
12CB3
  0
LWPOLYLINE
  5
12CB4
330
12854
100
AcDbEntity
  8
DEPA
100
AcDbPolyline
 90
        4
 70
     1
 43
0.0
 10
-0.0058875260536801
 20
-0.0961551038306468
 10
-0.002672565283806
 20
-0.1012210713836552
 10
0.0184610109253534
 20
-0.0878092960952088
 10
0.0152460501554792
 20
-0.0827433285421933
1001
AcDbBlockRepETag
1070
     1
1071
      543
1005
12CB4
  0
LWPOLYLINE
  5
12CB5
330
12854
100
AcDbEntity
  8
DEPA
100
AcDbPolyline
 90
        4
 70
     1
 43
0.0
 10
-0.0143052834266619
 20
-0.0852100084459053
 10
-0.0104807394881696
 20
-0.0898330879025622
 10
0.0088052509955538
 20
-0.0738783290250922
 10
0.0049807070570616
 20
-0.0692552495684353
1001
AcDbBlockRepETag
1070
     1
1071
      544
1005
12CB5
  0
LWPOLYLINE
  5
12CB6
330
12854
100
AcDbEntity
  8
DEPA
100
AcDbPolyline
 90
        4
 70
     1
 43
0.0
 10
-0.0240284484647226
 20
-0.0754062431583265
 10
-0.0196546367001922
 20
-0.0795135257938995
 10
-0.0025203835327368
 20
-0.0612673994058142
 10
-0.0068941952972672
 20
-0.0571601167702411
1001
AcDbBlockRepETag
1070
     1
1071
      545
1005
12CB6
  0
LWPOLYLINE
  5
12CB7
330
12854
100
AcDbEntity
  8
DEPA
100
AcDbPolyline
 90
        4
 70
     1
 43
0.0
 10
-0.0349036810468881
 20
-0.0668984192029925
 10
-0.030049579080643
 20
-0.0704251307167496
 10
-0.0153372806374073
 20
-0.0501753891309065
 10
-0.0201913826036524
 20
-0.0466486776171493
1001
AcDbBlockRepETag
1070
     1
1071
      546
1005
12CB7
  0
LWPOLYLINE
  5
12CB8
330
12854
100
AcDbEntity
  8
DEPA
100
AcDbPolyline
 90
        4
 70
     1
 43
0.0
 10
-0.0467594722587883
 20
-0.0598207100459902
 10
-0.0415016321785267
 20
-0.0627112320905994
 10
-0.0294433101946616
 20
-0.0407772258284069
 10
-0.0347011502749233
 20
-0.0378867037837978
1001
AcDbBlockRepETag
1070
     1
1071
      547
1005
12CB8
  0
LWPOLYLINE
  5
12CB9
330
12854
100
AcDbEntity
  8
DEPA
100
AcDbPolyline
 90
        4
 70
     1
 43
0.0
 10
-0.0594088491906995
 20
-0.0542847353887552
 10
-0.0538301902753737
 20
-0.0564934827048589
 10
-0.0446160116918542
 20
-0.033221124147822
 10
-0.050194670607187
 20
-0.0310123768317112
1001
AcDbBlockRepETag
1070
     1
1071
      548
1005
12CB9
  0
LWPOLYLINE
  5
12CBA
330
12854
100
AcDbEntity
  8
DEPA
100
AcDbPolyline
 90
        4
 70
     1
 43
0.0
 10
-0.0726523236120436
 20
-0.0503778008586515
 10
-0.0668408246452721
 20
-0.0518699401816392
 10
-0.0606161025626513
 20
-0.0276262483264276
 10
-0.0664276015294227
 20
-0.0261341090034399
1001
AcDbBlockRepETag
1070
     1
1071
      549
1005
12CBA
  0
LWPOLYLINE
  5
12CBB
330
12854
100
AcDbEntity
  8
DEPA
100
AcDbPolyline
 90
        4
 70
     1
 43
0.0
 10
-0.0862810380199299
 20
-0.0481615211471258
 10
-0.0803283498120458
 20
-0.0489135205485098
 10
-0.0771912518160285
 20
-0.0240808328981608
 10
-0.0831439400239127
 20
-0.0233288334967767
1001
AcDbBlockRepETag
1070
     1
1071
      550
1005
12CBB
  0
ENDBLK
  5
12A7D
330
12854
100
AcDbEntity
  8
0
 62
     1
100
AcDbBlockEnd
  0
ENDSEC
  0
SECTION
  2
ENTITIES
  0
INSERT
  5
12A8D
330
1F
100
AcDbEntity
  8
DEPA
 62
     1
100
AcDbBlockReference
  2
TR_03
 10
29.9999999568239
 20
120.0000000232271
 30
0.0
 41
100.0
 42
100.0
 43
100.0
  0
INSERT
  5
12A8E
330
1F
100
AcDbEntity
  8
DEPA
 62
     1
100
AcDbBlockReference
  2
TR_03
 10
129.9999999568239
 20
120.0000000232271
 30
0.0
 41
100.0
 42
100.0
 43
100.0
  0
INSERT
  5
12A8F
330
1F
100
AcDbEntity
  8
DEPA
 62
     1
100
AcDbBlockReference
  2
TR_03
 10
189.999999956824
 20
120.0000000232271
 30
0.0
 41
100.0
 42
100.0
 43
100.0
  0
INSERT
  5
12A90
330
1F
100
AcDbEntity
  8
DEPA
 62
     1
100
AcDbBlockReference
  2
TR_03
 10
129.9999999568239
 20
240.0000000232271
 30
0.0
 41
100.0
 42
100.0
 43
100.0
  0
INSERT
  5
12A91
330
1F
100
AcDbEntity
  8
DEPA
 62
     1
100
AcDbBlockReference
  2
TR_03
 10
189.999999956824
 20
240.0000000232271
 30
0.0
 41
100.0
 42
100.0
 43
100.0
  0
ENDSEC
  0
SECTION
  2
OBJECTS
  0
DICTIONARY
  5
C
330
0
100
AcDbDictionary
281
     1
  3
ACAD_2007HEADERVARS_RT
350
12CF9
  3
ACAD_BACKGROUND
350
3FA
  3
ACAD_COLOR
350
73
  3
ACAD_GROUP
350
D
  3
ACAD_LAYOUT
350
1A
  3
ACAD_MATERIAL
350
72
  3
ACAD_MLINESTYLE
350
17
  3
ACAD_PERSUBENTMGR
350
63B
  3
ACAD_PLOTSETTINGS
350
19
  3
ACAD_PLOTSTYLENAME
350
E
  3
ACAD_TABLESTYLE
350
86
  3
ACAD_VISUALSTYLE
350
99
  3
AcAec
350
206
  3
AcDbVariableDictionary
350
66
  3
AEC_CLASSIFICATION_SYSTEM_DEFS
350
11467
  3
AEC_DISP_REP_CONFIGURATIONS
350
1F9
  3
AEC_DISP_REP_SETS
350
1E7
  3
AEC_DISP_REPS
350
C1
  3
AEC_DISPLAY_PROPS_DEFAULTS
350
C3
  3
AEC_LAYERKEY_STYLES
350
1F1
  3
AEC_PROPERTY_SET_DEFS
350
205
  3
AEC_VARS
350
CA
  3
DWGPROPS
350
12CF8
  0
DICTIONARY
  5
56B
330
8
100
AcDbDictionary
280
     1
281
     1
  0
DICTIONARY
  5
1F7
330
2
100
AcDbDictionary
280
     1
281
     1
  3
ACAD_LAYERFILTERS
360
3A7
  3
ACAD_LAYERSTATES
360
1F8
  3
ACLYDICTIONARY
360
3A6
  0
DICTIONARY
  5
2DE
330
1F
100
AcDbDictionary
280
     1
281
     1
  3
ACAD_SORTENTS
360
2DF
  0
DICTIONARY
  5
12CBC
330
12854
100
AcDbDictionary
280
     1
281
     1
  0
DICTIONARY
  5
12CF9
102
{ACAD_REACTORS
330
C
102
}
330
C
100
AcDbDictionary
281
     1
  3
DIMFXL
350
12CFB
  3
DIMFXLON
350
12CFA
  3
DIMLTEX1
350
12CFD
  3
DIMLTEX2
350
12CFE
  3
DIMLTYPE
350
12CFC
  0
DICTIONARY
  5
3FA
102
{ACAD_REACTORS
330
C
102
}
330
C
100
AcDbDictionary
281
     1
  0
DICTIONARY
  5
73
102
{ACAD_REACTORS
330
C
102
}
330
C
100
AcDbDictionary
281
     1
  0
DICTIONARY
  5
D
102
{ACAD_REACTORS
330
C
102
}
330
C
100
AcDbDictionary
281
     1
  0
DICTIONARY
  5
1A
102
{ACAD_REACTORS
330
C
102
}
330
C
100
AcDbDictionary
281
     1
  3
Layout1
350
59
  3
Layout2
350
5E
  3
Model
350
22
  0
DICTIONARY
  5
72
102
{ACAD_REACTORS
330
C
102
}
330
C
100
AcDbDictionary
281
     1
  3
ByBlock
350
97
  3
ByLayer
350
96
  3
Global
350
98
  0
DICTIONARY
  5
17
102
{ACAD_REACTORS
330
C
102
}
330
C
100
AcDbDictionary
281
     1
  3
Standard
350
18
  0
ACAD_PROXY_OBJECT
  5
63B
102
{ACAD_REACTORS
330
C
102
}
330
C
100
AcDbProxyObject
 90
      499
 91
      739
 95
       23
 70
     0
 93
     5066
310
40A4086529000099334CA00000D4280000354A00000D628000035CA00000D8280000364A00000DA28000036CA00000DC280000374A00000DE28000037CA00000E0280000384A00000E228000038CA00000E4280000394A00000E628000039CA00000E82800003A4A00000EA2800003ACA00000EC2800003B4A00000EE28000
310
03BCA00000F02800003C4A00000F22800003CCA00000F42800003D4A00000F62800003DCA00000F82800003E4A00000FA2800003ECA00000FC2800003F4A00000FE2800003FCA0000000290000004A400000229000000CA4000004290000014A400000629000001CA4000008290000024A400000A29000002CA400000C2900
310
00034A400000E29000003CA4000010290000044A400001229000004CA4000014290000054A400001629000005CA4000018290000064A400001A29000006CA400001C290000074A400001E29000007CA4000020290000084A400002229000008CA4000024290000094A400002629000009CA40000282900000A4A400002A290
310
0000ACA400002C2900000B4A400002E2900000BCA40000302900000C4A40000322900000CCA40000342900000D4A40000362900000DCA40000382900000E4A400003A2900000ECA400003C2900000F4A400003E2900000FCA4000040290000104A400004229000010CA4000044290000114A400004629000011CA400004829
310
0000124A400004A29000012CA400004C290000134A400004E29000013CA4000050290000144A400005229000014CA4000054290000154A400005629000015CA4000058290000164A400005A29000016CA400005C290000174A400005E29000017CA4000060290000184A400006229000018CA4000064290000194A40003F
 94
        0
1001
ACAD
1000
AcRTDxfName
1000
ACDBPERSSUBENTMANAGER
1000
AcRTDxfName
1000
ACDBPERSSUBENTMANAGER
1000
AcRTDxfName
1000
ACDBPERSSUBENTMANAGER
1000
AcRTDxfName
1000
ACDBPERSSUBENTMANAGER
1000
AcRTDxfName
1000
ACDBPERSSUBENTMANAGER
  0
DICTIONARY
  5
19
102
{ACAD_REACTORS
330
C
102
}
330
C
100
AcDbDictionary
281
     1
  0
ACDBDICTIONARYWDFLT
  5
E
102
{ACAD_REACTORS
330
C
102
}
330
C
100
AcDbDictionary
281
     1
  3
Full Saturation
350
1F6
  3
Normal
350
F
100
AcDbDictionaryWithDefault
340
F
  0
DICTIONARY
  5
86
102
{ACAD_REACTORS
330
C
102
}
330
C
100
AcDbDictionary
281
     1
  3
Standard
350
87
  0
DICTIONARY
  5
99
102
{ACAD_REACTORS
330
C
102
}
330
C
100
AcDbDictionary
281
     1
  3
2dWireframe
350
9F
  3
3D Hidden
350
A1
  3
3dWireframe
350
A0
  3
Basic
350
9E
  3
Brighten
350
A5
  3
ColorChange
350
A9
  3
Conceptual
350
A2
  3
Dim
350
A4
  3
Facepattern
350
A8
  3
Flat
350
9A
  3
FlatWithEdges
350
9B
  3
Gouraud
350
9C
  3
GouraudWithEdges
350
9D
  3
Linepattern
350
A7
  3
Realistic
350
A3
  3
Thicken
350
A6
  0
DICTIONARY
  5
206
102
{ACAD_REACTORS
330
C
102
}
330
C
100
AcDbDictionary
281
     1
  3
AcAecLayerManager
350
207
  0
DICTIONARY
  5
66
102
{ACAD_REACTORS
330
C
102
}
330
C
100
AcDbDictionary
281
     1
  3
CTABLESTYLE
350
89
  3
DIMASSOC
350
67
  3
HIDETEXT
350
6B
  3
INDEXCTL
350
5F5
  3
SORTENTS
350
5F4
  0
DICTIONARY
  5
11467
102
{ACAD_REACTORS
330
C
102
}
330
C
100
AcDbDictionary
281
     1
  0
DICTIONARY
  5
1F9
102
{ACAD_REACTORS
330
C
102
}
330
C
100
AcDbDictionary
281
     1
  3
Medium Detail
350
1FA
  3
Standard
350
209
1001
AECBASE
1070
 10000
1005
1FA
  0
DICTIONARY
  5
1E7
102
{ACAD_REACTORS
330
C
102
}
330
C
100
AcDbDictionary
281
     1
  3
Elevation
350
1EB
  3
Model
350
1E8
  3
Model High Detail
350
1EF
  3
Model Low Detail
350
1EE
  3
Plan
350
1E9
  3
Plan Diagnostic
350
1F0
  3
Plan High Detail
350
1ED
  3
Plan Low Detail
350
1EC
  3
Reflected
350
1EA
  0
DICTIONARY
  5
C1
102
{ACAD_REACTORS
330
C
102
}
330
C
100
AcDbDictionary
281
     1
  3
AecDbDispRep2dSection
350
13F
  3
AecDbDispRepAnchor
350
141
  3
AecDbDispRepAnchorBubToGrid
350
C2
  3
AecDbDispRepAnchorBubToGridMdl
350
C5
  3
AecDbDispRepAnchorBubToGridRcp
350
C7
  3
AecDbDispRepAnchorEntToNode
350
142
  3
AecDbDispRepAnchorExtendedTagToEnt
350
16D
  3
AecDbDispRepAnchorTagToEnt
350
16B
  3
AecDbDispRepBdgElevLineModel
350
171
  3
AecDbDispRepBdgElevLinePlan
350
173
  3
AecDbDispRepBdgElevLinePlan100
350
E1
  3
AecDbDispRepBdgElevLinePlan50
350
FC
  3
AecDbDispRepBdgElevLineRcp
350
175
  3
AecDbDispRepBdgSectionLineModel
350
177
  3
AecDbDispRepBdgSectionLinePlan
350
179
  3
AecDbDispRepBdgSectionLinePlan100
350
E3
  3
AecDbDispRepBdgSectionLinePlan50
350
FE
  3
AecDbDispRepBdgSectionLineRcp
350
17B
  3
AecDbDispRepBdgSectionModel
350
17D
  3
AecDbDispRepBdgSectionSubDiv
350
17E
  3
AecDbDispRepCeilingGrid
350
180
  3
AecDbDispRepCeilingGridModel
350
182
  3
AecDbDispRepCeilingGridPlan100
350
E5
  3
AecDbDispRepCeilingGridPlan50
350
100
  3
AecDbDispRepCeilingGridRcp
350
184
  3
AecDbDispRepClipVolModel
350
144
  3
AecDbDispRepClipVolPlan
350
146
  3
AecDbDispRepClipVolResSubDiv
350
149
  3
AecDbDispRepClipVolResult
350
148
  3
AecDbDispRepColumnGrid
350
C9
  3
AecDbDispRepColumnGridModel
350
CD
  3
AecDbDispRepColumnGridPlan100
350
E7
  3
AecDbDispRepColumnGridPlan50
350
102
  3
AecDbDispRepColumnGridRcp
350
CF
  3
AecDbDispRepCurtainWallLayoutModel
350
186
  3
AecDbDispRepCurtainWallLayoutPlan
350
188
  3
AecDbDispRepCurtainWallLayoutPlan100
350
E9
  3
AecDbDispRepCurtainWallLayoutPlan50
350
104
  3
AecDbDispRepCurtainWallUnitModel
350
18A
  3
AecDbDispRepCurtainWallUnitPlan
350
18C
  3
AecDbDispRepCurtainWallUnitPlan100
350
EB
  3
AecDbDispRepCurtainWallUnitPlan50
350
106
  3
AecDbDispRepDimGroupPlan
350
11B
  3
AecDbDispRepDimGroupPlan100
350
117
  3
AecDbDispRepDimGroupPlan50
350
119
  3
AecDbDispRepDisplayTheme
350
14B
  3
AecDbDispRepDoorElev
350
190
  3
AecDbDispRepDoorModel
350
18E
  3
AecDbDispRepDoorNominal
350
194
  3
AecDbDispRepDoorPlan
350
192
  3
AecDbDispRepDoorPlan50
350
11D
  3
AecDbDispRepDoorPlanHekto
350
11F
  3
AecDbDispRepDoorRcp
350
196
  3
AecDbDispRepDoorThresholdPlan
350
198
  3
AecDbDispRepDoorThresholdSymbolPlan
350
121
  3
AecDbDispRepEditInPlaceProfile
350
14D
  3
AecDbDispRepEntRef
350
14F
  3
AecDbDispRepLayoutCurve
350
151
  3
AecDbDispRepLayoutGrid2d
350
153
  3
AecDbDispRepLayoutGrid3d
350
155
  3
AecDbDispRepMaskBlockRef
350
157
  3
AecDbDispRepMaskBlockRefRcp
350
19A
  3
AecDbDispRepMassElemModel
350
163
  3
AecDbDispRepMassElemPlan100
350
123
  3
AecDbDispRepMassElemPlan50
350
125
  3
AecDbDispRepMassElemRcp
350
19C
  3
AecDbDispRepMassElemSchem
350
165
  3
AecDbDispRepMassGroupModel
350
167
  3
AecDbDispRepMassGroupPlan
350
169
  3
AecDbDispRepMassGroupPlan100
350
127
  3
AecDbDispRepMassGroupPlan50
350
129
  3
AecDbDispRepMassGroupRcp
350
19E
  3
AecDbDispRepMaterial
350
159
  3
AecDbDispRepMvBlockRef
350
15B
  3
AecDbDispRepMvBlockRef$Plan
350
1FD
  3
AecDbDispRepMvBlockRefModel
350
15C
  3
AecDbDispRepMvBlockRefPlan100
350
ED
  3
AecDbDispRepMvBlockRefPlan50
350
108
  3
AecDbDispRepMvBlockRefRcp
350
1A0
  3
AecDbDispRepOpening
350
1A1
  3
AecDbDispRepOpeningModel
350
1A3
  3
AecDbDispRepOpeningPlan100
350
12B
  3
AecDbDispRepOpeningPlan50
350
12D
  3
AecDbDispRepOpeningPlanReflected
350
12F
  3
AecDbDispRepOpeningSillPlan
350
131
  3
AecDbDispRepPolygonModel
350
15D
  3
AecDbDispRepPolygonTrueColour
350
15F
  3
AecDbDispRepRailingModel
350
1A5
  3
AecDbDispRepRailingPlan
350
1A7
  3
AecDbDispRepRailingPlan100
350
133
  3
AecDbDispRepRailingPlan50
350
135
  3
AecDbDispRepRoofModel
350
1A9
  3
AecDbDispRepRoofPlan
350
1AB
  3
AecDbDispRepRoofPlan100
350
EE
  3
AecDbDispRepRoofPlan50
350
109
  3
AecDbDispRepRoofRcp
350
1AD
  3
AecDbDispRepRoofSlabModel
350
1B1
  3
AecDbDispRepRoofSlabPlan
350
1B5
  3
AecDbDispRepRoofSlabPlan100
350
F0
  3
AecDbDispRepRoofSlabPlan50
350
10B
  3
AecDbDispRepScheduleTable
350
16F
  3
AecDbDispRepSlabModel
350
1AF
  3
AecDbDispRepSlabPlan
350
1B3
  3
AecDbDispRepSlabPlan100
350
F2
  3
AecDbDispRepSlabPlan50
350
10D
  3
AecDbDispRepSlice
350
161
  3
AecDbDispRepSpaceDecomposed
350
1B7
  3
AecDbDispRepSpaceModel
350
1B9
  3
AecDbDispRepSpacePlan
350
1BB
  3
AecDbDispRepSpacePlan100
350
F4
  3
AecDbDispRepSpacePlan50
350
10F
  3
AecDbDispRepSpaceRcp
350
1BD
  3
AecDbDispRepSpaceVolume
350
1BF
  3
AecDbDispRepStairModel
350
1C1
  3
AecDbDispRepStairPlan
350
1C3
  3
AecDbDispRepStairPlan100
350
137
  3
AecDbDispRepStairPlan50
350
139
  3
AecDbDispRepStairPlanOverlapping
350
1C5
  3
AecDbDispRepStairRcp
350
1C7
  3
AecDbDispRepWallGraph
350
1C9
  3
AecDbDispRepWallModel
350
1CB
  3
AecDbDispRepWallPlan
350
1CD
  3
AecDbDispRepWallPlan100
350
F6
  3
AecDbDispRepWallPlan50
350
111
  3
AecDbDispRepWallRcp
350
1CF
  3
AecDbDispRepWallSchem
350
1D1
  3
AecDbDispRepWindowAssemblyModel
350
1D3
  3
AecDbDispRepWindowAssemblyPlan
350
1D5
  3
AecDbDispRepWindowAssemblyPlan100
350
F8
  3
AecDbDispRepWindowAssemblyPlan50
350
113
  3
AecDbDispRepWindowAssemblySillPlan
350
1D7
  3
AecDbDispRepWindowElev
350
1DB
  3
AecDbDispRepWindowModel
350
1D9
  3
AecDbDispRepWindowNominal
350
1DF
  3
AecDbDispRepWindowPlan
350
1DD
  3
AecDbDispRepWindowPlan100
350
13B
  3
AecDbDispRepWindowPlan50
350
13D
  3
AecDbDispRepWindowRcp
350
1E1
  3
AecDbDispRepWindowSillPlan
350
1E3
  3
AecDbDispRepZone
350
1E5
  3
AecDbDispRepZonePlan100
350
FA
  3
AecDbDispRepZonePlan50
350
115
  3
AecsDbDispRepMemberElevationDesign
350
D1
  3
AecsDbDispRepMemberElevationDetail
350
D3
  3
AecsDbDispRepMemberLogical
350
D5
  3
AecsDbDispRepMemberModelDesign
350
D7
  3
AecsDbDispRepMemberModelDetail
350
D9
  3
AecsDbDispRepMemberPlanDesign
350
DB
  3
AecsDbDispRepMemberPlanDetail
350
DD
  3
AecsDbDispRepMemberPlanSketch
350
DF
  0
DICTIONARY
  5
C3
102
{ACAD_REACTORS
330
C
102
}
330
C
100
AcDbDictionary
281
     1
  3
*A1
350
C4
  3
*A10
350
1CC
  3
*A100
350
EC
  3
*A101
350
EF
  3
*A102
350
193
  3
*A103
350
10E
  3
*A104
350
1DA
  3
*A105
350
1A8
  3
*A106
350
172
  3
*A107
350
178
  3
*A108
350
DC
  3
*A109
350
166
  3
*A11
350
F5
  3
*A110
350
110
  3
*A111
350
120
  3
*A112
350
174
  3
*A113
350
D4
  3
*A114
350
112
  3
*A115
350
114
  3
*A116
350
1DC
  3
*A117
350
156
  3
*A118
350
1E0
  3
*A119
350
150
  3
*A12
350
1B8
  3
*A120
350
122
  3
*A121
350
CC
  3
*A122
350
116
  3
*A123
350
1BE
  3
*A124
350
12C
  3
*A125
350
1CE
  3
*A126
350
18F
  3
*A127
350
145
  3
*A128
350
19B
  3
*A129
350
19F
  3
*A13
350
13C
  3
*A130
350
191
  3
*A131
350
101
  3
*A132
350
12E
  3
*A133
350
130
  3
*A134
350
DA
  3
*A135
350
F3
  3
*A136
350
176
  3
*A137
350
FB
  3
*A138
350
132
  3
*A139
350
1DE
  3
*A14
350
15A
  3
*A140
350
E4
  3
*A141
350
147
  3
*A15
350
16E
  3
*A16
350
1C8
  3
*A17
350
1BC
  3
*A18
350
15E
  3
*A19
350
160
  3
*A2
350
107
  3
*A20
350
11A
  3
*A21
350
1AA
  3
*A22
350
11E
  3
*A23
350
1A2
  3
*A24
350
F1
  3
*A25
350
170
  3
*A26
350
162
  3
*A27
350
164
  3
*A28
350
F9
  3
*A29
350
17C
  3
*A3
350
134
  3
*A30
350
10A
  3
*A31
350
1E4
  3
*A32
350
197
  3
*A33
350
D2
  3
*A34
350
D6
  3
*A35
350
18D
  3
*A36
350
1E6
  3
*A37
350
14C
  3
*A38
350
17F
  3
*A39
350
181
  3
*A4
350
136
  3
*A40
350
DE
  3
*A41
350
13A
  3
*A42
350
1CA
  3
*A43
350
143
  3
*A44
350
183
  3
*A45
350
11C
  3
*A46
350
1AE
  3
*A47
350
12A
  3
*A48
350
199
  3
*A49
350
1C2
  3
*A5
350
C8
  3
*A50
350
103
  3
*A51
350
F7
  3
*A52
350
1B0
  3
*A53
350
1B2
  3
*A54
350
152
  3
*A55
350
168
  3
*A56
350
E2
  3
*A57
350
16C
  3
*A58
350
D8
  3
*A59
350
138
  3
*A6
350
158
  3
*A60
350
1C4
  3
*A61
350
1B4
  3
*A62
350
1B6
  3
*A63
350
140
  3
*A64
350
1D0
  3
*A65
350
185
  3
*A66
350
154
  3
*A67
350
124
  3
*A68
350
CE
  3
*A69
350
1A6
  3
*A7
350
118
  3
*A70
350
1D2
  3
*A71
350
1E2
  3
*A72
350
126
  3
*A73
350
19D
  3
*A74
350
1D4
  3
*A75
350
1D6
  3
*A76
350
187
  3
*A77
350
10C
  3
*A78
350
18B
  3
*A79
350
105
  3
*A8
350
E0
  3
*A80
350
195
  3
*A81
350
1D8
  3
*A82
350
16A
  3
*A83
350
E6
  3
*A84
350
17A
  3
*A85
350
D0
  3
*A86
350
FD
  3
*A87
350
14A
  3
*A88
350
14E
  3
*A89
350
13E
  3
*A9
350
1C6
  3
*A90
350
E8
  3
*A91
350
EA
  3
*A92
350
1A4
  3
*A93
350
1BA
  3
*A94
350
128
  3
*A95
350
1C0
  3
*A96
350
C6
  3
*A97
350
189
  3
*A98
350
1AC
  3
*A99
350
FF
  0
DICTIONARY
  5
1F1
102
{ACAD_REACTORS
330
C
102
}
330
C
100
AcDbDictionary
281
     1
  3
AIA (256 Color)
350
200
  0
DICTIONARY
  5
205
102
{ACAD_REACTORS
330
C
102
}
330
C
100
AcDbDictionary
281
     1
  0
DICTIONARY
  5
CA
102
{ACAD_REACTORS
330
C
102
}
330
C
100
AcDbDictionary
281
     1
  3
AEC_VARS_ARCHBASE
350
203
  3
AEC_VARS_DWG_SETUP
350
CB
  3
AECMX_VARS_MUNICH
350
204
  0
XRECORD
  5
12CF8
102
{ACAD_REACTORS
330
C
102
}
330
C
100
AcDbXrecord
280
     1
  1
DWGPROPS COOKIE
  2

  3

  4

  6

  7

  8
User
  9

300
=
301
=
302
=
303
=
304
=
305
=
306
=
307
=
308
=
309
=
 40
0.6497641782407407
 41
2455020.45785662
 42
2455030.435165104
  1

 90
        0
  0
DICTIONARY
  5
3A7
102
{ACAD_REACTORS
330
1F7
102
}
330
1F7
100
AcDbDictionary
281
     1
  0
DICTIONARY
  5
1F8
102
{ACAD_REACTORS
330
1F7
102
}
330
1F7
100
AcDbDictionary
281
     1
  0
DICTIONARY
  5
3A6
102
{ACAD_REACTORS
330
1F7
102
}
330
1F7
100
AcDbDictionary
281
     1
1001
ACAD
1000
<All
  0
SORTENTSTABLE
  5
2DF
102
{ACAD_REACTORS
330
2DE
102
}
330
2DE
100
AcDbSortentsTable
330
1F
  0
XRECORD
  5
12CFB
102
{ACAD_REACTORS
330
12CF9
102
}
330
12CF9
100
AcDbXrecord
280
     1
 40
0.1
  0
XRECORD
  5
12CFA
102
{ACAD_REACTORS
330
12CF9
102
}
330
12CF9
100
AcDbXrecord
280
     1
290
     1
  0
XRECORD
  5
12CFD
102
{ACAD_REACTORS
330
12CF9
102
}
330
12CF9
100
AcDbXrecord
280
     1
340
16
  0
XRECORD
  5
12CFE
102
{ACAD_REACTORS
330
12CF9
102
}
330
12CF9
100
AcDbXrecord
280
     1
340
16
  0
XRECORD
  5
12CFC
102
{ACAD_REACTORS
330
12CF9
102
}
330
12CF9
100
AcDbXrecord
280
     1
340
16
  0
LAYOUT
  5
59
102
{ACAD_XDICTIONARY
360
12D01
102
}
102
{ACAD_REACTORS
330
1A
102
}
330
1A
100
AcDbPlotSettings
  1

  2
None
  4

  6

 40
0.0
 41
0.0
 42
0.0
 43
0.0
 44
0.0
 45
0.0
 46
0.0
 47
0.0
 48
0.0
 49
0.0
140
0.0
141
0.0
142
1.0
143
1.0
 70
   688
 72
     0
 73
     0
 74
     5
  7

 75
    16
147
1.0
148
0.0
149
0.0
100
AcDbLayout
  1
Layout1
 70
     1
 71
     1
 10
0.0
 20
0.0
 11
12.0
 21
9.0
 12
0.0
 22
0.0
 32
0.0
 14
0.0
 24
0.0
 34
0.0
 15
0.0
 25
0.0
 35
0.0
146
0.0
 13
0.0
 23
0.0
 33
0.0
 16
1.0
 26
0.0
 36
0.0
 17
0.0
 27
1.0
 37
0.0
 76
     0
330
58
  0
LAYOUT
  5
5E
102
{ACAD_XDICTIONARY
360
12D03
102
}
102
{ACAD_REACTORS
330
1A
102
}
330
1A
100
AcDbPlotSettings
  1

  2
None
  4

  6

 40
0.0
 41
0.0
 42
0.0
 43
0.0
 44
0.0
 45
0.0
 46
0.0
 47
0.0
 48
0.0
 49
0.0
140
0.0
141
0.0
142
1.0
143
1.0
 70
   688
 72
     0
 73
     0
 74
     5
  7

 75
    16
147
1.0
148
0.0
149
0.0
100
AcDbLayout
  1
Layout2
 70
     1
 71
     2
 10
0.0
 20
0.0
 11
12.0
 21
9.0
 12
0.0
 22
0.0
 32
0.0
 14
0.0
 24
0.0
 34
0.0
 15
0.0
 25
0.0
 35
0.0
146
0.0
 13
0.0
 23
0.0
 33
0.0
 16
1.0
 26
0.0
 36
0.0
 17
0.0
 27
1.0
 37
0.0
 76
     0
330
5D
  0
LAYOUT
  5
22
102
{ACAD_XDICTIONARY
360
12CFF
102
}
102
{ACAD_REACTORS
330
1A
102
}
330
1A
100
AcDbPlotSettings
  1

  2
none_device
  4
ANSI_A_(8.50_x_11.00_Inches)
  6

 40
6.349999904632568
 41
19.04999923706055
 42
6.350006103515625
 43
19.04998779296875
 44
215.8999938964844
 45
279.3999938964844
 46
0.0
 47
0.0
 48
0.0
 49
0.0
140
0.0
141
0.0
142
1.0
143
2.584895464708373
 70
 11952
 72
     0
 73
     1
 74
     0
  7

 75
     0
147
0.3868628397755418
148
0.0
149
0.0
100
AcDbLayout
  1
Model
 70
     1
 71
     0
 10
0.0
 20
0.0
 11
12.0
 21
9.0
 12
0.0
 22
0.0
 32
0.0
 14
0.0
 24
0.0
 34
0.0
 15
0.0
 25
0.0
 35
0.0
146
0.0
 13
0.0
 23
0.0
 33
0.0
 16
1.0
 26
0.0
 36
0.0
 17
0.0
 27
1.0
 37
0.0
 76
     0
330
1F
331
94
  0
MATERIAL
  5
97
102
{ACAD_XDICTIONARY
360
12D09
102
}
102
{ACAD_REACTORS
330
72
102
}
330
72
100
AcDbMaterial
  1
ByBlock
 43
0.0393700787401575
 43
0.0
 43
0.0
 43
0.0
 43
0.0
 43
0.0393700787401575
 43
0.0
 43
0.0
 43
0.0
 43
0.0
 43
0.0393700787401575
 43
0.0
 43
0.0
 43
0.0
 43
0.0
 43
1.0
  0
MATERIAL
  5
96
102
{ACAD_XDICTIONARY
360
12D07
102
}
102
{ACAD_REACTORS
330
72
102
}
330
72
100
AcDbMaterial
  1
ByLayer
 43
0.0393700787401575
 43
0.0
 43
0.0
 43
0.0
 43
0.0
 43
0.0393700787401575
 43
0.0
 43
0.0
 43
0.0
 43
0.0
 43
0.0393700787401575
 43
0.0
 43
0.0
 43
0.0
 43
0.0
 43
1.0
  0
MATERIAL
  5
98
102
{ACAD_XDICTIONARY
360
12D0B
102
}
102
{ACAD_REACTORS
330
72
102
}
330
72
100
AcDbMaterial
  1
Global
 43
0.0393700787401575
 43
0.0
 43
0.0
 43
0.0
 43
0.0
 43
0.0393700787401575
 43
0.0
 43
0.0
 43
0.0
 43
0.0
 43
0.0393700787401575
 43
0.0
 43
0.0
 43
0.0
 43
0.0
 43
1.0
  0
MLINESTYLE
  5
18
102
{ACAD_REACTORS
330
17
102
}
330
17
100
AcDbMlineStyle
  2
STANDARD
 70
     0
  3

 62
   256
 51
90.0
 52
90.0
 71
     2
 49
0.5
 62
   256
  6
BYLAYER
 49
-0.5
 62
   256
  6
BYLAYER
  0
ACDBPLACEHOLDER
  5
1F6
102
{ACAD_REACTORS
330
E
102
}
330
E
  0
ACDBPLACEHOLDER
  5
F
102
{ACAD_REACTORS
330
E
102
}
330
E
  0
TABLESTYLE
  5
87
102
{ACAD_XDICTIONARY
360
12D05
102
}
102
{ACAD_REACTORS
330
86
102
}
330
86
100
AcDbTableStyle
  3
Standard
 70
     0
 71
     0
 40
0.06
 41
0.06
280
     0
281
     0
  7
Standard
140
0.18
170
     2
 62
     0
 63
     7
283
     0
274
    -2
284
     1
 64
     0
275
    -2
285
     1
 65
     0
276
    -2
286
     1
 66
     0
277
    -2
287
     1
 67
     0
278
    -2
288
     1
 68
     0
279
    -2
289
     1
 69
     0
  7
Standard
140
0.25
170
     5
 62
     0
 63
     7
283
     0
274
    -2
284
     1
 64
     0
275
    -2
285
     1
 65
     0
276
    -2
286
     1
 66
     0
277
    -2
287
     1
 67
     0
278
    -2
288
     1
 68
     0
279
    -2
289
     1
 69
     0
  7
Standard
140
0.18
170
     5
 62
     0
 63
     7
283
     0
274
    -2
284
     1
 64
     0
275
    -2
285
     1
 65
     0
276
    -2
286
     1
 66
     0
277
    -2
287
     1
 67
     0
278
    -2
288
     1
 68
     0
279
    -2
289
     1
 69
     0
  0
VISUALSTYLE
  5
9F
102
{ACAD_REACTORS
330
99
102
}
330
99
100
AcDbVisualStyle
  2
2dWireframe
 70
     4
 71
     0
 72
     2
 73
     1
 90
        0
 40
-0.6
 41
-30.0
 62
     5
 63
     7
 74
     1
 91
        4
 64
     7
 65
   257
 75
     1
175
     1
 42
1.0
 92
        0
 66
   257
 43
1.0
 76
     1
 77
     6
 78
     2
 67
     7
 79
     5
170
     0
171
     0
290
     0
174
     0
 93
        1
 44
0.0
173
     0
291
     0
 45
0.0
1001
ACAD
1000
AcDbSavedByObjectVersion
1070
     0
  0
VISUALSTYLE
  5
A1
102
{ACAD_REACTORS
330
99
102
}
330
99
100
AcDbVisualStyle
  2
3D Hidden
 70
     6
 71
     1
 72
     2
 73
     2
 90
        0
 40
-0.6
 41
-30.0
 62
     5
 63
     7
 74
     2
 91
        2
 64
     7
 65
   257
 75
     2
175
     1
 42
40.0
 92
        0
 66
   257
 43
1.0
 76
     1
 77
     6
 78
     2
 67
     7
 79
     3
170
     0
171
     0
290
     0
174
     0
 93
        1
 44
0.0
173
     0
291
     0
 45
0.0
1001
ACAD
1000
AcDbSavedByObjectVersion
1070
     0
  0
VISUALSTYLE
  5
A0
102
{ACAD_REACTORS
330
99
102
}
330
99
100
AcDbVisualStyle
  2
3dWireframe
 70
     5
 71
     0
 72
     2
 73
     1
 90
        0
 40
-0.6
 41
-30.0
 62
     5
 63
     7
 74
     1
 91
        4
 64
     7
 65
   257
 75
     1
175
     1
 42
1.0
 92
        0
 66
   257
 43
1.0
 76
     1
 77
     6
 78
     2
 67
     7
 79
     5
170
     0
171
     0
290
     0
174
     0
 93
        1
 44
0.0
173
     0
291
     0
 45
0.0
1001
ACAD
1000
AcDbSavedByObjectVersion
1070
     0
  0
VISUALSTYLE
  5
9E
102
{ACAD_REACTORS
330
99
102
}
330
99
100
AcDbVisualStyle
  2
Basic
 70
     7
 71
     1
 72
     0
 73
     1
 90
        0
 40
-0.6
 41
-30.0
 62
     5
 63
     7
 74
     0
 91
        4
 64
     7
 65
   257
 75
     1
175
     1
 42
1.0
 92
        8
 66
     7
 43
1.0
 76
     1
 77
     6
 78
     2
 67
     7
 79
     5
170
     0
171
     0
290
     0
174
     0
 93
        1
 44
0.0
173
     0
291
     1
 45
0.0
1001
ACAD
1000
AcDbSavedByObjectVersion
1070
     0
  0
VISUALSTYLE
  5
A5
102
{ACAD_REACTORS
330
99
102
}
330
99
100
AcDbVisualStyle
  2
Brighten
 70
    12
 71
     2
 72
     2
 73
     1
 90
        0
 40
-0.6
 41
-30.0
 62
     5
 63
     7
 74
     1
 91
        4
 64
     7
 65
   257
 75
     1
175
     1
 42
1.0
 92
        8
 66
     7
 43
1.0
 76
     1
 77
     6
 78
     2
 67
     7
 79
     5
170
     0
171
     0
290
     0
174
     0
 93
        1
 44
50.0
173
     0
291
     1
 45
0.0
1001
ACAD
1000
AcDbSavedByObjectVersion
1070
     0
  0
VISUALSTYLE
  5
A9
102
{ACAD_REACTORS
330
99
102
}
330
99
100
AcDbVisualStyle
  2
ColorChange
 70
    16
 71
     2
 72
     2
 73
     3
 90
        0
 40
-0.6
 41
-30.0
 62
     5
 63
     8
 74
     1
 91
        4
 64
     7
 65
   257
 75
     1
175
     1
 42
1.0
 92
        8
 66
     8
 43
1.0
 76
     1
 77
     6
 78
     2
 67
     7
 79
     5
170
     0
171
     0
290
     0
174
     0
 93
        1
 44
0.0
173
     0
291
     1
 45
0.0
1001
ACAD
1000
AcDbSavedByObjectVersion
1070
     0
  0
VISUALSTYLE
  5
A2
102
{ACAD_REACTORS
330
99
102
}
330
99
100
AcDbVisualStyle
  2
Conceptual
 70
     9
 71
     3
 72
     2
 73
     1
 90
        0
 40
-0.6
 41
-30.0
 62
     5
 63
     7
 74
     2
 91
        2
 64
     7
 65
   257
 75
     1
175
     1
 42
40.0
 92
        8
 66
     7
 43
1.0
 76
     1
 77
     6
 78
     2
 67
     7
 79
     3
170
     0
171
     0
290
     0
174
     0
 93
        1
 44
0.0
173
     0
291
     0
 45
0.0
1001
ACAD
1000
AcDbSavedByObjectVersion
1070
     0
  0
VISUALSTYLE
  5
A4
102
{ACAD_REACTORS
330
99
102
}
330
99
100
AcDbVisualStyle
  2
Dim
 70
    11
 71
     2
 72
     2
 73
     1
 90
        0
 40
-0.6
 41
-30.0
 62
     5
 63
     7
 74
     1
 91
        4
 64
     7
 65
   257
 75
     1
175
     1
 42
1.0
 92
        8
 66
     7
 43
1.0
 76
     1
 77
     6
 78
     2
 67
     7
 79
     5
170
     0
171
     0
290
     0
174
     0
 93
        1
 44
-50.0
173
     0
291
     1
 45
0.0
1001
ACAD
1000
AcDbSavedByObjectVersion
1070
     0
  0
VISUALSTYLE
  5
A8
102
{ACAD_REACTORS
330
99
102
}
330
99
100
AcDbVisualStyle
  2
Facepattern
 70
    15
 71
     2
 72
     2
 73
     1
 90
        0
 40
-0.6
 41
-30.0
 62
     5
 63
     7
 74
     1
 91
        4
 64
     7
 65
   257
 75
     1
175
     1
 42
1.0
 92
        8
 66
     7
 43
1.0
 76
     1
 77
     6
 78
     2
 67
     7
 79
     5
170
     0
171
     0
290
     0
174
     0
 93
        1
 44
0.0
173
     0
291
     1
 45
0.0
1001
ACAD
1000
AcDbSavedByObjectVersion
1070
     0
  0
VISUALSTYLE
  5
9A
102
{ACAD_REACTORS
330
99
102
}
330
99
100
AcDbVisualStyle
  2
Flat
 70
     0
 71
     2
 72
     1
 73
     1
 90
        2
 40
-0.6
 41
30.0
 62
     5
 63
     7
 74
     0
 91
        4
 64
     7
 65
   257
 75
     1
175
     1
 42
1.0
 92
        8
 66
     7
 43
1.0
 76
     1
 77
     6
 78
     2
 67
     7
 79
     5
170
     0
171
     0
290
     0
174
     0
 93
        1
 44
0.0
173
     0
291
     1
 45
0.0
1001
ACAD
1000
AcDbSavedByObjectVersion
1070
     0
  0
VISUALSTYLE
  5
9B
102
{ACAD_REACTORS
330
99
102
}
330
99
100
AcDbVisualStyle
  2
FlatWithEdges
 70
     1
 71
     2
 72
     1
 73
     1
 90
        2
 40
-0.6
 41
30.0
 62
     5
 63
     7
 74
     1
 91
        4
 64
     7
 65
   257
 75
     1
175
     1
 42
1.0
 92
        0
 66
   257
 43
1.0
 76
     1
 77
     6
 78
     2
 67
     7
 79
     5
170
     0
171
     0
290
     0
174
     0
 93
        1
 44
0.0
173
     0
291
     1
 45
0.0
1001
ACAD
1000
AcDbSavedByObjectVersion
1070
     0
  0
VISUALSTYLE
  5
9C
102
{ACAD_REACTORS
330
99
102
}
330
99
100
AcDbVisualStyle
  2
Gouraud
 70
     2
 71
     2
 72
     2
 73
     1
 90
        2
 40
-0.6
 41
30.0
 62
     5
 63
     7
 74
     0
 91
        4
 64
     7
 65
   257
 75
     1
175
     1
 42
1.0
 92
        0
 66
     7
 43
1.0
 76
     1
 77
     6
 78
     2
 67
     7
 79
     5
170
     0
171
     0
290
     0
174
     0
 93
        1
 44
0.0
173
     0
291
     1
 45
0.0
1001
ACAD
1000
AcDbSavedByObjectVersion
1070
     0
  0
VISUALSTYLE
  5
9D
102
{ACAD_REACTORS
330
99
102
}
330
99
100
AcDbVisualStyle
  2
GouraudWithEdges
 70
     3
 71
     2
 72
     2
 73
     1
 90
        2
 40
-0.6
 41
30.0
 62
     5
 63
     7
 74
     1
 91
        4
 64
     7
 65
   257
 75
     1
175
     1
 42
1.0
 92
        0
 66
   257
 43
1.0
 76
     1
 77
     6
 78
     2
 67
     7
 79
     5
170
     0
171
     0
290
     0
174
     0
 93
        1
 44
0.0
173
     0
291
     1
 45
0.0
1001
ACAD
1000
AcDbSavedByObjectVersion
1070
     0
  0
VISUALSTYLE
  5
A7
102
{ACAD_REACTORS
330
99
102
}
330
99
100
AcDbVisualStyle
  2
Linepattern
 70
    14
 71
     2
 72
     2
 73
     1
 90
        0
 40
-0.6
 41
-30.0
 62
     5
 63
     7
 74
     1
 91
        4
 64
     7
 65
   257
 75
     7
175
     7
 42
1.0
 92
        8
 66
     7
 43
1.0
 76
     1
 77
     6
 78
     2
 67
     7
 79
     5
170
     0
171
     0
290
     0
174
     0
 93
        1
 44
0.0
173
     0
291
     1
 45
0.0
1001
ACAD
1000
AcDbSavedByObjectVersion
1070
     0
  0
VISUALSTYLE
  5
A3
102
{ACAD_REACTORS
330
99
102
}
330
99
100
AcDbVisualStyle
  2
Realistic
 70
     8
 71
     2
 72
     2
 73
     1
 90
        0
 40
-0.6
 41
-30.0
 62
     5
 63
     7
 74
     1
 91
        0
 64
     7
 65
   257
 75
     1
175
     1
 42
1.0
 92
        8
 66
     8
 43
1.0
 76
     1
 77
     6
 78
     2
 67
     7
 79
     5
170
     0
171
     0
290
     0
174
     0
 93
       13
 44
0.0
173
     0
291
     0
 45
0.0
1001
ACAD
1000
AcDbSavedByObjectVersion
1070
     0
  0
VISUALSTYLE
  5
A6
102
{ACAD_REACTORS
330
99
102
}
330
99
100
AcDbVisualStyle
  2
Thicken
 70
    13
 71
     2
 72
     2
 73
     1
 90
        0
 40
-0.6
 41
-30.0
 62
     5
 63
     7
 74
     1
 91
        4
 64
     7
 65
   257
 75
     1
175
     1
 42
1.0
 92
       12
 66
     7
 43
1.0
 76
     1
 77
     6
 78
     2
 67
     7
 79
     5
170
     0
171
     0
290
     0
174
     0
 93
        1
 44
0.0
173
     0
291
     1
 45
0.0
1001
ACAD
1000
AcDbSavedByObjectVersion
1070
     0
  0
DICTIONARY
  5
207
102
{ACAD_REACTORS
330
206
102
}
330
206
100
AcDbDictionary
280
     1
281
     1
  3
DefaultStandard
360
113AD
  3
Standards
360
208
  0
DICTIONARYVAR
  5
89
102
{ACAD_REACTORS
330
66
102
}
330
66
100
DictionaryVariables
280
     0
  1
STANDARD
  0
DICTIONARYVAR
  5
67
102
{ACAD_REACTORS
330
66
102
}
330
66
100
DictionaryVariables
280
     0
  1
2
  0
DICTIONARYVAR
  5
6B
102
{ACAD_REACTORS
330
66
102
}
330
66
100
DictionaryVariables
280
     0
  1
1
  0
DICTIONARYVAR
  5
5F5
102
{ACAD_REACTORS
330
66
102
}
330
66
100
DictionaryVariables
280
     0
  1
0
  0
DICTIONARYVAR
  5
5F4
102
{ACAD_REACTORS
330
66
102
}
330
66
100
DictionaryVariables
280
     0
  1
127
  0
DICTIONARY
  5
12D01
330
59
100
AcDbDictionary
280
     1
281
     1
  3
ACAD_XREC_ROUNDTRIP
360
12D02
  0
DICTIONARY
  5
12D03
330
5E
100
AcDbDictionary
280
     1
281
     1
  3
ACAD_XREC_ROUNDTRIP
360
12D04
  0
DICTIONARY
  5
12CFF
330
22
100
AcDbDictionary
280
     1
281
     1
  3
ACAD_XREC_ROUNDTRIP
360
12D00
  0
DICTIONARY
  5
12D09
330
97
100
AcDbDictionary
280
     1
281
     1
  3
ACAD_XREC_ROUNDTRIP
360
12D0A
  0
DICTIONARY
  5
12D07
330
96
100
AcDbDictionary
280
     1
281
     1
  3
ACAD_XREC_ROUNDTRIP
360
12D08
  0
DICTIONARY
  5
12D0B
330
98
100
AcDbDictionary
280
     1
281
     1
  3
ACAD_XREC_ROUNDTRIP
360
12D0C
  0
DICTIONARY
  5
12D05
330
87
100
AcDbDictionary
280
     1
281
     1
  3
ACAD_XREC_ROUNDTRIP
360
12D06
  0
XRECORD
  5
113AD
102
{ACAD_REACTORS
330
207
102
}
330
207
100
AcDbXrecord
280
     1
1000
AIA Version 3
  0
BINRECORD
  5
208
102
{ACAD_REACTORS
330
207
102
}
330
207
100
AcAecBinRecord
 90
        0
 91
    19403
 70
     0
310
0100FFFEFF0D4100490041002000560065007200730069006F006E00200033000500FFFF01001C004163416563556B4C6179657244657363726970746976654669656C64FFFEFF154400690073006300690070006C0069006E0065002000440065007300690067006E00610074006F0072000102000000007B333637354541
310
46100100002100000070BA406CD0EA76040B00FFFEFF001500FFFEFF01440002000000FFFEFF07500072006F0063006500730073000E00FFFEFF01440002000000FFFEFF12500072006F0063006500730073002000440065006D006F006C006900740069006F006E00000000000000FFFEFF01560002000000FFFEFF0E5000
310
72006F0063006500730073002000560061006300750075006D00000000000000FFFEFF01450002000000FFFEFF12500072006F006300650073007300200045006C0065006300740072006900630061006C00000000000000FFFEFF01570002000000FFFEFF0E500072006F0063006500730073002000570061007400650072
310
007300000000000000FFFEFF01580002000000FFFEFF0F500072006F00630065007300730020004500780068006100750073007400000000000000FFFEFF01470002000000FFFEFF0D500072006F006300650073007300200047006100730065007300000000000000FFFEFF014F0002000000FFFEFF0B500072006F006300
310
65007300730020004F0069006C00000000000000FFFEFF01500002000000FFFEFF0E500072006F006300650073007300200050006900700069006E006700000000000000FFFEFF01510002000000FFFEFF11500072006F0063006500730073002000450071007500690070006D0065006E007400000000000000FFFEFF0152
310
0002000000FFFEFF19500072006F006300650073007300200044007200610069006E0073002000260020005200650063006C00610069006D007300000000000000FFFEFF01410002000000FFFEFF0C500072006F00630065007300730020004100690072007300000000000000FFFEFF01530002000000FFFEFF0C50007200
310
6F00630065007300730020005300690074006500000000000000FFFEFF01540002000000FFFEFF18500072006F006300650073007300200045006E0074007200610069006E0065006400200053006F006C00690064007300000000000000FFFEFF01430002000000FFFEFF11500072006F0063006500730073002000430068
310
0065006D006900630061006C00730000000000000000000000FFFEFF01560002000000FFFEFF1053007500720076006500790020002F0020004D0061007000700069006E0067000500FFFEFF01460002000000FFFEFF0C4600690065006C0064002000530075007200760065007900000000000000FFFEFF01490002000000
310
FFFEFF0E4400690067006900740061006C002000530075007200760065007900000000000000FFFEFF014A0002000000FFFEFF1F53007500720076006500790020002F0020004D0061007000700069006E006700200028005500730065007200200044006500660069006E00650064002900000000000000FFFEFF014B0002
310
000000FFFEFF1F53007500720076006500790020002F0020004D0061007000700069006E006700200028005500730065007200200044006500660069006E00650064002900000000000000FFFEFF01410002000000FFFEFF0D410065007200690061006C00200053007500720076006500790000000000000000000000FFFE
310
FF01450002000000FFFEFF0A45006C0065006300740072006900630061006C000900FFFEFF01440002000000FFFEFF1545006C0065006300740072006900630061006C002000440065006D006F006C006900740069006F006E00000000000000FFFEFF01590002000000FFFEFF1C45006C0065006300740072006900630061
310
006C00200041007500780069006C0069006100720079002000530079007300740065006D007300000000000000FFFEFF01490002000000FFFEFF1A45006C0065006300740072006900630061006C00200049006E0073007400720075006D0065006E0074006100740069006F006E00000000000000FFFEFF014A0002000000
310
FFFEFF1945006C0065006300740072006900630061006C00200028005500730065007200200044006500660069006E00650064002900000000000000FFFEFF014B0002000000FFFEFF1945006C0065006300740072006900630061006C00200028005500730065007200200044006500660069006E00650064002900000000
310
000000FFFEFF014C0002000000FFFEFF1345006C0065006300740072006900630061006C0020004C00690067006800740069006E006700000000000000FFFEFF01500002000000FFFEFF1045006C0065006300740072006900630061006C00200050006F00770065007200000000000000FFFEFF01530002000000FFFEFF0F
310
45006C0065006300740072006900630061006C0020005300690074006500000000000000FFFEFF01540002000000FFFEFF1D45006C0065006300740072006900630061006C002000540065006C00650063006F006D006D0075006E00690063006100740069006F006E00730000000000000000000000FFFEFF015700020000
310
00FFFEFF0B43006900760069006C00200057006F0072006B0073000200FFFEFF014A0002000000FFFEFF1A43006900760069006C00200057006F0072006B007300200028005500730065007200200044006500660069006E00650064002900000000000000FFFEFF014B0002000000FFFEFF1A43006900760069006C002000
310
57006F0072006B007300200028005500730065007200200044006500660069006E0065006400290000000000000000000000FFFEFF01460002000000FFFEFF0F46006900720065002000500072006F00740065006300740069006F006E000400FFFEFF014A0002000000FFFEFF134600690072006500200028005500730065
310
007200200044006500660069006E00650064002900000000000000FFFEFF014B0002000000FFFEFF134600690072006500200028005500730065007200200044006500660069006E00650064002900000000000000FFFEFF01410002000000FFFEFF184600690072006500200044006500740065006300740069006F006E00
310
200061006E006400200041006C00610072006D00000000000000FFFEFF01530002000000FFFEFF10460069007200650020005300750070007000720065007300730069006F006E0000000000000000000000FFFEFF01470002000000FFFEFF07470065006E006500720061006C000500FFFEFF01490002000000FFFEFF1347
310
0065006E006500720061006C00200049006E0066006F0072006D006100740069006F006E00000000000000FFFEFF014A0002000000FFFEFF16470065006E006500720061006C00200028005500730065007200200044006500660069006E00650064002900000000000000FFFEFF014B0002000000FFFEFF16470065006E00
310
6500720061006C00200028005500730065007200200044006500660069006E00650064002900000000000000FFFEFF01520002000000FFFEFF10470065006E006500720061006C0020005200650073006F007500720063006500000000000000FFFEFF01430002000000FFFEFF13470065006E006500720061006C00200043
310
006F006E0074007200610063007400750061006C0000000000000000000000FFFEFF01580002000000FFFEFF114F00740068006500720020004400690073006300690070006C0069006E00650073000200FFFEFF014A0002000000FFFEFF204F00740068006500720020004400690073006300690070006C0069006E006500
310
7300200028005500730065007200200044006500660069006E00650064002900000000000000FFFEFF014B0002000000FFFEFF204F00740068006500720020004400690073006300690070006C0069006E0065007300200028005500730065007200200044006500660069006E0065006400290000000000000000000000FF
310
FEFF01480002000000FFFEFF13480061007A006100720064006F007500730020004D006100740065007200690061006C0073000700FFFEFF014A0002000000FFFEFF22480061007A006100720064006F007500730020004D006100740065007200690061006C00730020002800550073006500720020004400650066006900
310
6E00650064002900000000000000FFFEFF014B0002000000FFFEFF22480061007A006100720064006F007500730020004D006100740065007200690061006C007300200028005500730065007200200044006500660069006E00650064002900000000000000FFFEFF014C0002000000FFFEFF044C00650061006400000000
310
000000FFFEFF01500002000000FFFEFF03500043004200000000000000FFFEFF01520002000000FFFEFF0C5200650066007200690067006500720061006E0074007300000000000000FFFEFF01410002000000FFFEFF084100730062006500730074006F007300000000000000FFFEFF01430002000000FFFEFF0943006800
310
65006D006900630061006C00730000000000000000000000FFFEFF01490002000000FFFEFF0949006E0074006500720069006F00720073000600FFFEFF01440002000000FFFEFF1349006E0074006500720069006F0072002000440065006D006F006C006900740069006F006E00000000000000FFFEFF01460002000000FF
310
FEFF1149006E0074006500720069006F0072002000460069006E0069007300680065007300000000000000FFFEFF01470002000000FFFEFF1249006E0074006500720069006F0072007300200047007200610070006800690063007300000000000000FFFEFF014A0002000000FFFEFF1849006E0074006500720069006F00
310
72007300200028005500730065007200200044006500660069006E00650064002900000000000000FFFEFF014B0002000000FFFEFF1849006E0074006500720069006F0072007300200028005500730065007200200044006500660069006E00650064002900000000000000FFFEFF014E0002000000FFFEFF0F49006E0074
310
006500720069006F0072002000440065007300690067006E0000000000000000000000FFFEFF015A0002000000FFFEFF1A43006F006E00740072006100630074006F00720020002F002000530068006F0070002000440072006100770069006E00670073000200FFFEFF014A0002000000FFFEFF2943006F006E0074007200
310
6100630074006F00720020002F002000530068006F0070002000440072006100770069006E0067007300200028005500730065007200200044006500660069006E00650064002900000000000000FFFEFF014B0002000000FFFEFF2943006F006E00740072006100630074006F00720020002F002000530068006F00700020
310
00440072006100770069006E0067007300200028005500730065007200200044006500660069006E0065006400290000000000000000000000FFFEFF014C0002000000FFFEFF094C0061006E006400730063006100700065000500FFFEFF01440002000000FFFEFF144C0061006E0064007300630061007000650020004400
310
65006D006F006C006900740069006F006E00000000000000FFFEFF01490002000000FFFEFF144C0061006E006400730063006100700065002000490072007200690067006100740069006F006E00000000000000FFFEFF014A0002000000FFFEFF184C0061006E006400730063006100700065002000280055007300650072
310
00200044006500660069006E00650064002900000000000000FFFEFF014B0002000000FFFEFF184C0061006E00640073006300610070006500200028005500730065007200200044006500660069006E00650064002900000000000000FFFEFF01500002000000FFFEFF124C0061006E006400730063006100700065002000
310
50006C0061006E00740069006E00670000000000000000000000FFFEFF014D0002000000FFFEFF0A4D0065006300680061006E006900630061006C000700FFFEFF01440002000000FFFEFF154D0065006300680061006E006900630061006C002000440065006D006F006C006900740069006F006E00000000000000FFFEFF
310
01480002000000FFFEFF0F4D0065006300680061006E006900630061006C0020004800560041004300000000000000FFFEFF01490002000000FFFEFF1A4D0065006300680061006E006900630061006C00200049006E0073007400720075006D0065006E0074006100740069006F006E00000000000000FFFEFF014A000200
310
0000FFFEFF194D0065006300680061006E006900630061006C00200028005500730065007200200044006500660069006E00650064002900000000000000FFFEFF014B0002000000FFFEFF194D0065006300680061006E006900630061006C00200028005500730065007200200044006500660069006E0065006400290000
310
0000000000FFFEFF01500002000000FFFEFF114D0065006300680061006E006900630061006C00200050006900700069006E006700000000000000FFFEFF01530002000000FFFEFF0F4D0065006300680061006E006900630061006C002000530069007400650000000000000000000000FFFEFF014F0002000000FFFEFF0A
310
4F007000650072006100740069006F006E0073000200FFFEFF014A0002000000FFFEFF194F007000650072006100740069006F006E007300200028005500730065007200200044006500660069006E00650064002900000000000000FFFEFF014B0002000000FFFEFF194F007000650072006100740069006F006E00730020
310
0028005500730065007200200044006500660069006E0065006400290000000000000000000000FFFEFF01500002000000FFFEFF0850006C0075006D00620069006E0067000600FFFEFF01440002000000FFFEFF1350006C0075006D00620069006E0067002000440065006D006F006C006900740069006F006E0000000000
310
0000FFFEFF014A0002000000FFFEFF1750006C0075006D00620069006E006700200028005500730065007200200044006500660069006E00650064002900000000000000FFFEFF014B0002000000FFFEFF1750006C0075006D00620069006E006700200028005500730065007200200044006500660069006E006500640029
310
00000000000000FFFEFF01500002000000FFFEFF0F50006C0075006D00620069006E006700200050006900700069006E006700000000000000FFFEFF01510002000000FFFEFF1250006C0075006D00620069006E0067002000450071007500690070006D0065006E007400000000000000FFFEFF01530002000000FFFEFF0D
310
50006C0075006D00620069006E0067002000530069007400650000000000000000000000FFFEFF01510002000000FFFEFF09450071007500690070006D0065006E0074001100FFFEFF01440002000000FFFEFF1344006500740065006E00740069006F006E002000450071007500690070006D0065006E0074000000000000
310
00FFFEFF01560002000000FFFEFF1C56006900640065006F002F00500068006F0074006F0067007200610070006800690063002000450071007500690070006D0065006E007400000000000000FFFEFF01450002000000FFFEFF1545006400750063006100740069006F006E0061006C002000450071007500690070006D00
310
65006E007400000000000000FFFEFF01460002000000FFFEFF1646006F006F006400200053006500720076006900630065002000450071007500690070006D0065006E007400000000000000FFFEFF01590002000000FFFEFF12530065006300750072006900740079002000450071007500690070006D0065006E00740000
310
0000000000FFFEFF01480002000000FFFEFF1248006F00730070006900740061006C002000450071007500690070006D0065006E007400000000000000FFFEFF014A0002000000FFFEFF18450071007500690070006D0065006E007400200028005500730065007200200044006500660069006E0065006400290000000000
310
0000FFFEFF014B0002000000FFFEFF18450071007500690070006D0065006E007400200028005500730065007200200044006500660069006E00650064002900000000000000FFFEFF014C0002000000FFFEFF144C00610062006F007200610074006F00720079002000450071007500690070006D0065006E007400000000
310
000000FFFEFF014D0002000000FFFEFF154D00610069006E00740065006E0061006E00630065002000450071007500690070006D0065006E007400000000000000FFFEFF01500002000000FFFEFF155000610072006B0069006E00670020004C006F0074002000450071007500690070006D0065006E007400000000000000
310
FFFEFF01520002000000FFFEFF10520065007400610069006C002000450071007500690070006D0065006E007400000000000000FFFEFF01410002000000FFFEFF124100740068006C0065007400690063002000450071007500690070006D0065006E007400000000000000FFFEFF01530002000000FFFEFF0E5300690074
310
0065002000450071007500690070006D0065006E007400000000000000FFFEFF01420002000000FFFEFF0E420061006E006B002000450071007500690070006D0065006E007400000000000000FFFEFF01540002000000FFFEFF145400680065006100740072006900630061006C002000450071007500690070006D006500
310
6E007400000000000000FFFEFF01430002000000FFFEFF16440072007900200043006C00650061006E0069006E0067002000450071007500690070006D0065006E00740000000000000000000000FFFEFF01410002000000FFFEFF0D4100720063006800690074006500630074007500720061006C000A00FFFEFF01440002
310
000000FFFEFF184100720063006800690074006500630074007500720061006C002000440065006D006F006C006900740069006F006E00000000000000FFFEFF01450002000000FFFEFF164100720063006800690074006500630074007500720061006C00200045006C0065006D0065006E0074007300000000000000FFFE
310
FF01460002000000FFFEFF164100720063006800690074006500630074007500720061006C002000460069006E0069007300680065007300000000000000FFFEFF01470002000000FFFEFF164100720063006800690074006500630074007500720061006C00200047007200610070006800690063007300000000000000FF
310
FEFF01490002000000FFFEFF164100720063006800690074006500630074007500720061006C00200049006E0074006500720069006F007200000000000000FFFEFF014A0002000000FFFEFF1C4100720063006800690074006500630074007500720061006C00200028005500730065007200200044006500660069006E00
310
650064002900000000000000FFFEFF014B0002000000FFFEFF1C4100720063006800690074006500630074007500720061006C00200028005500730065007200200044006500660069006E00650064002900000000000000FFFEFF01500002000000FFFEFF144100720063006800690074006500630074007500720061006C
310
00200050006100760069006E006700000000000000FFFEFF01530002000000FFFEFF124100720063006800690074006500630074007500720061006C0020005300690074006500000000000000FFFEFF01540002000000FFFEFF1C4100720063006800690074006500630074007500720061006C0020005400720061006E00
310
730070006F00720074006100740069006F006E0000000000000001000000FFFEFF01520002000000FFFEFF085200650073006F0075007200630065000700FFFEFF01450002000000FFFEFF135200650073006F007500720063006500200045006C0065006300740072006900630061006C00000000000000FFFEFF014A0002
310
000000FFFEFF175200650073006F007500720063006500200028005500730065007200200044006500660069006E00650064002900000000000000FFFEFF014B0002000000FFFEFF175200650073006F007500720063006500200028005500730065007200200044006500660069006E00650064002900000000000000FFFE
310
FF014D0002000000FFFEFF135200650073006F00750072006300650020004D0065006300680061006E006900630061006C00000000000000FFFEFF01410002000000FFFEFF165200650073006F00750072006300650020004100720063006800690074006500630074007500720061006C00000000000000FFFEFF01530002
310
000000FFFEFF135200650073006F00750072006300650020005300740072007500630074007500720061006C00000000000000FFFEFF01430002000000FFFEFF0E5200650073006F007500720063006500200043006900760069006C0000000000000000000000FFFEFF01420002000000FFFEFF0C470065006F0074006500
310
630068006E006900630061006C000200FFFEFF014A0002000000FFFEFF1B470065006F0074006500630068006E006900630061006C00200028005500730065007200200044006500660069006E00650064002900000000000000FFFEFF014B0002000000FFFEFF1B470065006F0074006500630068006E006900630061006C
310
00200028005500730065007200200044006500660069006E0065006400290000000000000000000000FFFEFF01530002000000FFFEFF0A5300740072007500630074007500720061006C000600FFFEFF01440002000000FFFEFF155300740072007500630074007500720061006C002000440065006D006F006C0069007400
310
69006F006E00000000000000FFFEFF01460002000000FFFEFF125300740072007500630074007500720061006C0020004600720061006D0069006E006700000000000000FFFEFF014A0002000000FFFEFF195300740072007500630074007500720061006C00200028005500730065007200200044006500660069006E0065
310
0064002900000000000000FFFEFF014B0002000000FFFEFF195300740072007500630074007500720061006C00200028005500730065007200200044006500660069006E00650064002900000000000000FFFEFF01530002000000FFFEFF0F5300740072007500630074007500720061006C00200053006900740065000000
310
00000000FFFEFF01420002000000FFFEFF175300740072007500630074007500720061006C00200053007500620073007400720075006300740075007200650000000000000000000000FFFEFF01430002000000FFFEFF0543006900760069006C000900FFFEFF01440002000000FFFEFF1043006900760069006C00200044
310
0065006D006F006C006900740069006F006E00000000000000FFFEFF01550002000000FFFEFF0F43006900760069006C0020005500740069006C0069007400690065007300000000000000FFFEFF01470002000000FFFEFF0D43006900760069006C002000470072006100640069006E006700000000000000FFFEFF014900
310
02000000FFFEFF1243006900760069006C00200049006D00700072006F00760065006D0065006E0074007300000000000000FFFEFF014A0002000000FFFEFF1443006900760069006C00200028005500730065007200200044006500660069006E00650064002900000000000000FFFEFF014B0002000000FFFEFF14430069
310
00760069006C00200028005500730065007200200044006500660069006E00650064002900000000000000FFFEFF01500002000000FFFEFF0C43006900760069006C00200050006100760069006E006700000000000000FFFEFF01530002000000FFFEFF0A43006900760069006C0020005300690074006500000000000000
310
FFFEFF01540002000000FFFEFF1443006900760069006C0020005400720061006E00730070006F00720074006100740069006F006E0000000000000000000000FFFEFF01540002000000FFFEFF12540065006C00650063006F006D006D0075006E00690063006100740069006F006E0073000900FFFEFF01590002000000FF
310
FEFF0853006500630075007200690074007900000000000000FFFEFF01490002000000FFFEFF0849006E0074006500720063006F006D00000000000000FFFEFF014A0002000000FFFEFF21540065006C00650063006F006D006D0075006E00690063006100740069006F006E00730020002800550073006500720020004400
310
6500660069006E00650064002900000000000000FFFEFF014B0002000000FFFEFF21540065006C00650063006F006D006D0075006E00690063006100740069006F006E007300200028005500730065007200200044006500660069006E00650064002900000000000000FFFEFF014D0002000000FFFEFF0A4D006F006E0069
310
0074006F00720069006E006700000000000000FFFEFF014E0002000000FFFEFF0D440061007400610020004E006500740077006F0072006B007300000000000000FFFEFF01410002000000FFFEFF0E41007500640069006F0020002F002000560069007300750061006C00000000000000FFFEFF01540002000000FFFEFF09
310
540065006C006500700068006F006E006500000000000000FFFEFF01430002000000FFFEFF1143006C006F0063006B00200061006E0064002000500072006F006700720061006D00000000000000000000000180FFFEFF054D0061006A006F0072000300000000000000000000000000000000000000000000000000000000
310
000000FFFEFF002300FFFEFF052D0046006C006F00720002000000FFFEFF0546006C006F006F007200000000000000FFFEFF052D004500710070006D0002000000FFFEFF09450071007500690070006D0065006E007400000000000000FFFEFF052D00530069007400650002000000FFFEFF09530069007400650020007000
310
6C0061006E00000000000000FFFEFF052D0050006C0061006E0002000000FFFEFF154B0065007900200070006C0061006E002000280066006C006F006F007200200070006C0061006E002900000000000000FFFEFF052D004400650074006C0002000000FFFEFF06440065007400610069006C00000000000000FFFEFF052D
310
0054006F0070006F0002000000FFFEFF0A54006F0070006F00670072006100700068007900000000000000FFFEFF052D004300740072006C0002000000FFFEFF0E43006F006E00740072006F006C00200050006F0069006E0074007300000000000000FFFEFF052D004600750072006E0002000000FFFEFF0B460075007200
310
6E0069007300680069006E0067007300000000000000FFFEFF052D0053006C006100620002000000FFFEFF0553006C00610062007300000000000000FFFEFF052D0050006F006C00790002000000FFFEFF0850006F006C00790067006F006E007300000000000000FFFEFF052D0043006F006D006D0002000000FFFEFF1254
310
0065006C00650063006F006D006D0075006E00690063006100740069006F006E007300000000000000FFFEFF052D00570061006C006C0002000000FFFEFF05570061006C006C007300000000000000FFFEFF052D0047006C0061007A0002000000FFFEFF0747006C0061007A0069006E006700000000000000FFFEFF052D00
310
410072006500610002000000FFFEFF044100720065006100000000000000FFFEFF052D0043006F006400650002000000FFFEFF1443006F0064006500200063006F006D0070006C00690061006E0063006500200070006C0061006E00000000000000FFFEFF052D005300740072006D0002000000FFFEFF0844007200610069
310
006E00610067006500000000000000FFFEFF052D0044006F006F00720002000000FFFEFF0544006F006F0072007300000000000000FFFEFF052D0041006E006E006F0002000000FFFEFF0A41006E006E006F0074006100740069006F006E00000000000000FFFEFF052D004200650061006D0002000000FFFEFF0542006500
310
61006D007300000000000000FFFEFF052D004C0069007400650002000000FFFEFF114C00690067006800740069006E006700200066006900780074007500720065007300000000000000FFFEFF052D00480056004100430002000000FFFEFF044800560041004300000000000000FFFEFF052D004100630063007300020000
310
00FFFEFF0B410063006300650073007300200070006C0061006E00000000000000FFFEFF052D0043006F006C00730002000000FFFEFF0743006F006C0075006D006E007300000000000000FFFEFF052D0043006C006E00670002000000FFFEFF074300650069006C0069006E006700000000000000FFFEFF052D0045007600
310
6100630002000000FFFEFF0F450076006100630075006100740069006F006E00200070006C0061006E00000000000000FFFEFF052D0043006F006E00760002000000FFFEFF1143006F006E0076006500790069006E0067002000730079007300740065006D007300000000000000FFFEFF052D005300650063007400020000
310
00FFFEFF07530065006300740069006F006E00000000000000FFFEFF052D00500072006F00700002000000FFFEFF08500072006F0070006500720074007900000000000000FFFEFF052D0052006F006F00660002000000FFFEFF0452006F006F006600000000000000FFFEFF052D0045006C006500630002000000FFFEFF0A
310
45006C0065006300740072006900630061006C00000000000000FFFEFF052D00470072006900640002000000FFFEFF0A470072006900640020006C0069006E0065007300000000000000FFFEFF052D00540069006E006E0002000000FFFEFF1E54007200690061006E00670075006C00610074006500640020006900720072
310
006500670075006C006100720020006E006500740077006F0072006B00000000000000FFFEFF052D00500072006F00740002000000FFFEFF1646006900720065002000700072006F00740065006300740069006F006E002000730079007300740065006D00000000000000FFFEFF052D00460069007200650002000000FFFE
310
FF1446006900720065002000700072006F00740065006300740069006F006E00200070006C0061006E00000000000000FFFEFF052D0045006C006500760002000000FFFEFF0945006C00650076006100740069006F006E000000000000000180FFFEFF074D0069006E006F00720020003100040000000000000000F00E7704
310
00000000000000000000000000000000F00000FFFEFF006A00FFFEFF052D00410062006F00760002000000FFFEFF0E45006C0065006D0065006E00740073002000610062006F0076006500000000000000FFFEFF052D005400610062006C0002000000FFFEFF0B440061007400610020007400610062006C00650073000000
310
00000000FFFEFF052D00420064007200790002000000FFFEFF0842006F0075006E006400610072007900000000000000FFFEFF052D004500710070006D0002000000FFFEFF09450071007500690070006D0065006E007400000000000000FFFEFF052D0043006E007400720002000000FFFEFF0A430065006E007400650072
310
006C0069006E006500000000000000FFFEFF052D0057006B007300660002000000FFFEFF1E530079007300740065006D00200077006F0072006B0020007300750072006600610063006500200063006F006D0070006F006E0065006E0074007300000000000000FFFEFF052D00420072006E00670002000000FFFEFF1A4200
310
65006100720069006E0067007300200026002000640069007300740061006E006300650020006C006100620065006C007300000000000000FFFEFF052D00530077006300680002000000FFFEFF0853007700690074006300680065007300000000000000FFFEFF052D005400680069006E0002000000FFFEFF195400680069
310
006E0020007700650069006700680074002000670072006100700068006900630020006C0069006E0065007300000000000000FFFEFF052D00520061006900730002000000FFFEFF06520061006900730065006400000000000000FFFEFF052D004F00700065006E0002000000FFFEFF084F00700065006E0069006E006700
310
7300000000000000FFFEFF052D004E0070006C00740002000000FFFEFF204E006F006E002D0070006C006F007400740069006E00670020006700720061007000680069006300200069006E0066006F0072006D006100740069006F006E00000000000000FFFEFF052D00500072006F00660002000000FFFEFF08500072006F
310
00660069006C0065007300000000000000FFFEFF052D005200650066006C0002000000FFFEFF0E5200650066006C0065006300740065006400200050006C0061006E00000000000000FFFEFF052D00460069006E00650002000000FFFEFF19460069006E006500200077006500690067006800740020006700720061007000
310
68006900630020006C0069006E0065007300000000000000FFFEFF052D004100700070006C0002000000FFFEFF0A4100700070006C00690061006E00630065007300000000000000FFFEFF052D00440069006D00730002000000FFFEFF0A440069006D0065006E00730069006F006E007300000000000000FFFEFF052D0050
310
006F007700720002000000FFFEFF0550006F00770065007200000000000000FFFEFF052D0053006C006100620002000000FFFEFF0553006C00610062007300000000000000FFFEFF052D0043006F006E006E0002000000FFFEFF0B43006F006E006E0065006300740069006F006E007300000000000000FFFEFF052D005700
310
61006C006C0002000000FFFEFF05570061006C006C007300000000000000FFFEFF052D004100730073006D0002000000FFFEFF0A41007300730065006D0062006C00690065007300000000000000FFFEFF052D005600680063006C0002000000FFFEFF08560065006800690063006C0065007300000000000000FFFEFF052D
310
0043006F006D006D0002000000FFFEFF1A540065006C006500700068006F006E0065002C00200063006F006D006D0075006E00690063006100740069006F006E0073002000000000000000FFFEFF052D00460072006500650002000000FFFEFF0C46007200650065007300740061006E00640069006E006700000000000000
310
FFFEFF052D00530079006D00620002000000FFFEFF07530079006D0062006F006C007300000000000000FFFEFF052D00520064006D00650002000000FFFEFF1B52006500610064002D006D00650020006C006100790065007200200028006E006F007400200070006C006F0074007400650064002900000000000000FFFEFF
310
052D0053006C006300650002000000FFFEFF0653006C006900630065007300000000000000FFFEFF052D00460061007300630002000000FFFEFF074600610073006300690061007300000000000000FFFEFF052D00460069006C00650002000000FFFEFF0D460069006C006500200063006100620069006E00650074007300
310
000000000000FFFEFF052D004D00610073006B0002000000FFFEFF1241004400540020004D00610073006B0069006E00670020004F0062006A00650063007400000000000000FFFEFF052D004A0061006D00620002000000FFFEFF1544006F006F007200200061006E0064002000770069006E0064006F00770020006A0061
310
006D0062007300000000000000FFFEFF052D005300690067006E0002000000FFFEFF055300690067006E007300000000000000FFFEFF052D0046006E007300680002000000FFFEFF08460069006E0069007300680065007300000000000000FFFEFF052D00530063006800640002000000FFFEFF0953006300680065006400
310
75006C0065007300000000000000FFFEFF052D00500072006800740002000000FFFEFF0E5000610072007400690061006C002000680065006900670068007400000000000000FFFEFF052D00470072007000730002000000FFFEFF06470072006F00750070007300000000000000FFFEFF052D00540068006C006400020000
310
00FFFEFF0A5400680072006500730068006F006C0064007300000000000000FFFEFF052D005300630072006E0002000000FFFEFF14530063007200650065006E006500640020004200610063006B00670072006F0075006E0064007300000000000000FFFEFF052D0043006F006D00700002000000FFFEFF1349006E007400
310
650072006E0061006C00200063006F006D0070006F006E0065006E0074007300000000000000FFFEFF052D005400690074006C0002000000FFFEFF18440072006100770069006E00670020006F0072002000640065007400610069006C0020007400690074006C0065007300000000000000FFFEFF052D0054006500780074
310
0002000000FFFEFF045400650078007400000000000000FFFEFF052D004D00610072006B0002000000FFFEFF1D4D00610072006B006500720073002C00200062007200650061006B0020006D00610072006B0073002C0020006C00650061006400650072007300000000000000FFFEFF052D00460075006C006C0002000000
310
FFFEFF0B460075006C006C002D00680065006900670068007400000000000000FFFEFF052D00450076007400720002000000FFFEFF1B45006C0065007600610074006F00720020006300610072007300200061006E0064002000650071007500690070006D0065006E007400000000000000FFFEFF052D0053007000630065
310
0002000000FFFEFF0553007000610063006500000000000000FFFEFF052D00530075007300700002000000FFFEFF12530075007300700065006E00640065006400200065006C0065006D0065006E0074007300000000000000FFFEFF052D00540065006500730002000000FFFEFF094D00610069006E002000740065006500
310
7300000000000000FFFEFF052D00460069007800740002000000FFFEFF1170006C0075006D00620069006E006700200066006900780074007500720065007300000000000000FFFEFF052D00520065006600720002000000FFFEFF195200650066006500720065006E00630065002C002000650078007400650072006E0061
310
006C002000660069006C0065007300000000000000FFFEFF052D004C00610062006C0002000000FFFEFF064C006100620065006C007300000000000000FFFEFF052D004C0069007400650002000000FFFEFF084C00690067006800740069006E006700000000000000FFFEFF052D00480065007600790002000000FFFEFF1A
310
4800650061007600790020007700650069006700680074002000670072006100700068006900630020006C0069006E0065007300000000000000FFFEFF052D00480065006100640002000000FFFEFF1744006F006F007200200061006E0064002000770069006E0064006F0077002000680065006100640065007200730000
310
0000000000FFFEFF052D004C00650067006E0002000000FFFEFF144C006500670065006E00640073002C002000530079006D0062006F006C0020006B00650079007300000000000000FFFEFF052D004B00650079006E0002000000FFFEFF084B00650079006E006F00740065007300000000000000FFFEFF052D0046006900
310
7800640002000000FFFEFF0F460069007800650064002000650071007500690070006D0065006E007400000000000000FFFEFF052D004C00650076006C0002000000FFFEFF274C006500760065006C0020006300680061006E006700650073002C002000720061006D00700073002C00200070006900740073002C00200064
310
0065007000720065007300730069006F006E007300000000000000FFFEFF052D004D00650064006D0002000000FFFEFF1B4D0065006400690075006D0020007700650069006700680074002000670072006100700068006900630020006C0069006E0065007300000000000000FFFEFF052D0042006C006F00770002000000
310
FFFEFF0E45006C0065006D0065006E00740073002000620065006C006F007700000000000000FFFEFF052D00410063006300730002000000FFFEFF06410063006300650073007300000000000000FFFEFF052D004F0063006300700002000000FFFEFF1A4F00630063007500700061006E00740020006F007200200065006D
310
0070006C006F0079006500650020006E0061006D0065007300000000000000FFFEFF052D00430061007300650002000000FFFEFF08430061007300650077006F0072006B00000000000000FFFEFF052D00520065007600730002000000FFFEFF095200650076006900730069006F006E007300000000000000FFFEFF052D00
310
420072006300650002000000FFFEFF06420072006100630065007300000000000000FFFEFF052D00480069006400650002000000FFFEFF0E480069006400640065006E0020006F0062006A006500630074007300000000000000FFFEFF052D0043006C006E00670002000000FFFEFF074300650069006C0069006E00670000
310
0000000000FFFEFF052D005500740069006C0002000000FFFEFF095500740069006C0069007400690065007300000000000000FFFEFF052D00500061007400740002000000FFFEFF19540065007800740075007200650020006F00720020006800610074006300680020007000610074007400650072006E00730000000000
310
0000FFFEFF052D00430061007600690002000000FFFEFF06430061007600690074007900000000000000FFFEFF052D0050006C006E00740002000000FFFEFF0650006C0061006E0074007300000000000000FFFEFF052D00530074007200730002000000FFFEFF215300740061006900720020007400720065006100640073
310
002C00200065007300630061006C00610074006F00720073002C0020006C00610064006400650072007300000000000000FFFEFF052D00520065007600630002000000FFFEFF0F5200650076006900730069006F006E00200063006C006F00750064007300000000000000FFFEFF052D004D006F007600650002000000FFFE
310
FF124D006F0076006500610062006C0065002000650071007500690070006D0065006E007400000000000000FFFEFF052D005000650070006C0002000000FFFEFF06500065006F0070006C006500000000000000FFFEFF052D00440065006D006F0002000000FFFEFF0A440065006D006F006C006900740069006F006E0000
310
0000000000FFFEFF052D00430075007200740002000000FFFEFF0C4300750072007400610069006E002000570061006C006C00000000000000FFFEFF052D005700640077006B0002000000FFFEFF164100720063006800690074006500630074007500720061006C00200077006F006F00640077006F0072006B0000000000
310
0000FFFEFF052D004E006F007400650002000000FFFEFF054E006F00740065007300000000000000FFFEFF052D004F0076006800640002000000FFFEFF084F007600650072006800650061006400000000000000FFFEFF052D00530075006200740002000000FFFEFF14530075006200740072006100630074006900760065
310
00200065006C0065006D0065006E0074007300000000000000FFFEFF052D00530044004600460002000000FFFEFF1053007500700070006C0079002000640069006600660075007300650072007300000000000000FFFEFF052D00530074006F00720002000000FFFEFF19530079007300740065006D002000730074006F00
310
7200610067006500200063006F006D0070006F006E0065006E0074007300000000000000FFFEFF052D004900640065006E0002000000FFFEFF134900640065006E00740069006600690063006100740069006F006E0020005400610067007300000000000000FFFEFF052D004800720061006C0002000000FFFEFF16480061
310
006E0064007200610069006C0073002C0020006700750061007200640020007200610069006C007300000000000000FFFEFF052D00570069006400650002000000FFFEFF19570069006400650020007700650069006700680074002000670072006100700068006900630020006C0069006E0065007300000000000000FFFE
310
FF052D004D0061007300730002000000FFFEFF104D0061007300730069006E006700200045006C0065006D0065006E0074007300000000000000FFFEFF052D004C0069006E00650002000000FFFEFF0D44006500660069006E0069006E00670020004C0069006E006500000000000000FFFEFF052D00560069006500770002
310
000000FFFEFF13560069006500770070006F0072007400200044006500660069006E006900740069006F006E00000000000000FFFEFF052D0050006B006E00670002000000FFFEFF075000610072006B0069006E006700000000000000FFFEFF052D00520044004600460002000000FFFEFF14520065007400750072006E00
310
20006100690072002000640069006600660075007300650072007300000000000000FFFEFF052D00530065006100740002000000FFFEFF07530065006100740069006E006700000000000000FFFEFF052D0050006E006C00730002000000FFFEFF0D530079007300740065006D002000700061006E0065006C007300000000
310
000000FFFEFF052D004D0061007400630002000000FFFEFF0B4D00610074006300680020006C0069006E0065007300000000000000FFFEFF052D00410064007400760002000000FFFEFF1141006400640069007400690076006500200065006C0065006D0065006E0074007300000000000000FFFEFF052D00430068006100
310
730002000000FFFEFF0543006800610073006500000000000000FFFEFF052D005300700063006C0002000000FFFEFF0B5300700065006300690061006C007400690065007300000000000000FFFEFF052D00470072006900640002000000FFFEFF044700720069006400000000000000FFFEFF052D004E00690063006E0002
310
000000FFFEFF0F4E006F007400200069006E00200063006F006E0074007200610063007400000000000000FFFEFF052D004D0063007500740002000000FFFEFF164D00610069006E00200063007500740020006C0069006E006500200065006C0065006D0065006E0074007300000000000000FFFEFF052D00460069007200
310
650002000000FFFEFF0A46006900720065002000770061006C006C007300000000000000FFFEFF052D00530069006C006C0002000000FFFEFF0C570069006E0064006F0077002000730069006C006C007300000000000000FFFEFF052D005400700074006E0002000000FFFEFF1154006F0069006C00650074002000700061
310
00720074006900740069006F006E007300000000000000FFFEFF052D00520069007300720002000000FFFEFF0C530074006100690072002000720069007300650072007300000000000000FFFEFF052D004F0074006C006E0002000000FFFEFF074F00750074006C0069006E006500000000000000FFFEFF052D0054007400
310
6C00620002000000FFFEFF1642006F007200640065007200200061006E00640020007400690074006C006500200062006C006F0063006B000000000000000180FFFEFF074D0069006E006F0072002000320005000000004164642062656C6F77207468652073656C6563746564206974656DFFFEFF001600FFFEFF052D0041
310
0062006F00760002000000FFFEFF0E45006C0065006D0065006E00740073002000610062006F0076006500000000000000FFFEFF052D00420064007200790002000000FFFEFF0D4500640067006500200062006F0075006E006400610072007900000000000000FFFEFF052D005400680069006E0002000000FFFEFF0E4D00
310
69006E006F00720020006C0069006E00650077006F0072006B00000000000000FFFEFF052D004E0070006C00740002000000FFFEFF154E006F006E002D0070006C006F007400740069006E006700200065006C0065006D0065006E0074007300000000000000FFFEFF052D005200650066006C0002000000FFFEFF0F520065
310
0066006C0065006300740065006400200050006C0061006E007300000000000000FFFEFF052D00440069006D00730002000000FFFEFF0A440069006D0065006E00730069006F006E007300000000000000FFFEFF052D005300630061006C0002000000FFFEFF10470072006100700068006900630061006C00200053006300
310
61006C0065007300000000000000FFFEFF052D0053006C006300650002000000FFFEFF0653006C006900630065007300000000000000FFFEFF052D0047006C0061007A0002000000FFFEFF0747006C0061007A0069006E006700000000000000FFFEFF052D00460061007300630002000000FFFEFF06460061007300630069
310
006100000000000000FFFEFF052D00470072007000730002000000FFFEFF06470072006F00750070007300000000000000FFFEFF052D005400690074006C0002000000FFFEFF065400690074006C0065007300000000000000FFFEFF052D00530066006900740002000000FFFEFF0653006F00660066006900740000000000
310
0000FFFEFF052D00500061007400740002000000FFFEFF0E4800610074006300680020007000610074007400650072006E007300000000000000FFFEFF052D00480069006400650002000000FFFEFF0F480069006400640065006E00200065006C0065006D0065006E0074007300000000000000FFFEFF052D004E006F0074
310
00650002000000FFFEFF16470065006E006500720061006C0020005400650078007400200061006E00640020004E006F00740065007300000000000000FFFEFF052D0055006E006900740002000000FFFEFF0455006E0069007400000000000000FFFEFF052D004900640065006E0002000000FFFEFF0A4900640065006E00
310
740069006600690065007200000000000000FFFEFF052D004C0069006E00650002000000FFFEFF10470065006E006500720061006C0020006C0069006E00650077006F0072006B00000000000000FFFEFF052D00530069006C006C0002000000FFFEFF05530069006C006C007300000000000000FFFEFF052D005200690073
310
00720002000000FFFEFF06520069007300650072007300000000000000FFFEFF052D004F0074006C006E0002000000FFFEFF074F00750074006C0069006E0065000000000000000180FFFEFF06530074006100740075007300060000000000000000A434770470040000B10000005073770400000000050000FFFEFF000F00
310
FFFEFF022D00310002000000FFFEFF075000680061007300650020003100000000000000FFFEFF022D00320002000000FFFEFF075000680061007300650020003200000000000000FFFEFF022D00540002000000FFFEFF0E540065006D0070006F007200610072007900200077006F0072006B00000000000000FFFEFF022D
310
00330002000000FFFEFF075000680061007300650020003300000000000000FFFEFF022D00440002000000FFFEFF144500780069007300740069006E006700200074006F002000640065006D006F006C00690073006800000000000000FFFEFF022D00340002000000FFFEFF07500068006100730065002000340000000000
310
0000FFFEFF022D00450002000000FFFEFF124500780069007300740069006E006700200074006F002000720065006D00610069006E00000000000000FFFEFF022D00350002000000FFFEFF075000680061007300650020003500000000000000FFFEFF022D00460002000000FFFEFF0B460075007400750072006500200077
310
006F0072006B00000000000000FFFEFF022D00360002000000FFFEFF075000680061007300650020003600000000000000FFFEFF022D00370002000000FFFEFF075000680061007300650020003700000000000000FFFEFF022D00380002000000FFFEFF075000680061007300650020003800000000000000FFFEFF022D00
310
390002000000FFFEFF075000680061007300650020003900000000000000FFFEFF022D004D0002000000FFFEFF114900740065006D007300200074006F0020006200650020006D006F00760065006400000000000000FFFEFF022D004E0002000000FFFEFF084E0065007700200077006F0072006B000000000000000600FF
310
FF04001A004163416563556B4C61796572436F6D706F6E656E744669656C64FFFEFF174400690073006300690070006C0069006E0065002000440065007300690067006E00610074006F0072002000310001000000FFFEFF0440002C0040004000000000000100000000FFFEFF014100000000000780FFFEFF174400690073
310
006300690070006C0069006E0065002000440065007300690067006E00610074006F0072002000320001000000FFFEFF0440002C0040004000010000000100000000FFFEFF014400000000000780FFFEFF054D0061006A006F00720005000000FFFEFF052D00400040004000400000000000010000002DFFFEFF052D005700
310
61006C006C00000000000780FFFEFF064D0069006E006F007200310005000000FFFEFF022D002A0001000000010000002DFFFEFF052D004900640065006E00000000000780FFFEFF064D0069006E006F007200320005000000FFFEFF022D002A0001000000010000002DFFFEFF052D005400650078007400000000000780FF
310
FEFF0653007400610074007500730002000000FFFEFF022D002A0001000000010000002DFFFEFF022D004E0000000000050000010203040500FFFEFF00FFFEFF0320002D002000FFFEFF022C002000FFFEFF012000FFFEFF0320002D002000FFFEFF00
  0
XRECORD
  5
12D02
102
{ACAD_REACTORS
330
12D01
102
}
330
12D01
100
AcDbXrecord
280
     1
102
SHADEPLOT
 70
     0
102
SHADEPLOTRESLEVEL
 70
     2
102
SHADEPLOTCUSTOMDPI
 70
   300
  0
XRECORD
  5
12D04
102
{ACAD_REACTORS
330
12D03
102
}
330
12D03
100
AcDbXrecord
280
     1
102
SHADEPLOT
 70
     0
102
SHADEPLOTRESLEVEL
 70
     2
102
SHADEPLOTCUSTOMDPI
 70
   300
  0
XRECORD
  5
12D00
102
{ACAD_REACTORS
330
12CFF
102
}
330
12CFF
100
AcDbXrecord
280
     1
102
SHADEPLOT
 70
     0
102
SHADEPLOTRESLEVEL
 70
     2
102
SHADEPLOTCUSTOMDPI
 70
   300
  0
XRECORD
  5
12D0A
102
{ACAD_REACTORS
330
12D09
102
}
330
12D09
100
AcDbXrecord
280
     1
102
MATERIAL
148
0.0
149
0.0
149
0.0
 93
        0
 94
       63
282
     0
 72
     1
 77
     1
171
     1
175
     1
179
     1
273
     0
  0
XRECORD
  5
12D08
102
{ACAD_REACTORS
330
12D07
102
}
330
12D07
100
AcDbXrecord
280
     1
102
MATERIAL
148
0.0
149
0.0
149
0.0
 93
        0
 94
       63
282
     0
 72
     1
 77
     1
171
     1
175
     1
179
     1
273
     0
  0
XRECORD
  5
12D0C
102
{ACAD_REACTORS
330
12D0B
102
}
330
12D0B
100
AcDbXrecord
280
     1
102
MATERIAL
148
0.0
149
0.0
149
0.0
 93
        0
 94
       63
282
     0
 72
     1
 77
     1
171
     1
175
     1
179
     1
273
     0
  0
XRECORD
  5
12D06
102
{ACAD_REACTORS
330
12D05
102
}
330
12D05
100
AcDbXrecord
280
     1
102
ACAD_ROUNDTRIP_PRE2007_TABLESTYLE
 90
      512
 91
        0
  1

 92
      512
 93
        0
  2

 94
      512
 95
        0
  3

  0
ENDSEC
  0
EOF
