  0
SECTION
  2
HEADER
  9
$ACADVER
  1
AC1015
  9
$ACADMAINTVER
 70
    20
  9
$DWGCODEPAGE
  3
ANSI_1252
  9
$INSBASE
 10
0.0
 20
0.0
 30
0.0
  9
$EXTMIN
 10
-0.0039656273641668
 20
-0.001829905778493
 30
-0.0000000349181948
  9
$EXTMAX
 10
60.00335304258254
 20
120.0036630068368
 30
0.0000000814935746
  9
$LIMMIN
 10
0.0
 20
0.0
  9
$LIMMAX
 10
12.0
 20
9.0
  9
$ORTHOMODE
 70
     1
  9
$REGENMODE
 70
     1
  9
$FILLMODE
 70
     1
  9
$QTEXTMODE
 70
     0
  9
$MIRRTEXT
 70
     0
  9
$LTSCALE
 40
1.0
  9
$ATTMODE
 70
     1
  9
$TEXTSIZE
 40
0.2
  9
$TRACEWID
 40
0.05
  9
$TEXTSTYLE
  7
Standard
  9
$CLAYER
  8
0
  9
$CELTYPE
  6
ByLayer
  9
$CECOLOR
 62
   256
  9
$CELTSCALE
 40
1.0
  9
$DISPSILH
 70
     0
  9
$DIMSCALE
 40
96000.0
  9
$DIMASZ
 40
0.18
  9
$DIMEXO
 40
0.0625
  9
$DIMDLI
 40
0.38
  9
$DIMRND
 40
0.0
  9
$DIMDLE
 40
0.0
  9
$DIMEXE
 40
0.18
  9
$DIMTP
 40
0.0
  9
$DIMTM
 40
0.0
  9
$DIMTXT
 40
0.18
  9
$DIMCEN
 40
0.09
  9
$DIMTSZ
 40
0.0
  9
$DIMTOL
 70
     0
  9
$DIMLIM
 70
     0
  9
$DIMTIH
 70
     1
  9
$DIMTOH
 70
     1
  9
$DIMSE1
 70
     0
  9
$DIMSE2
 70
     0
  9
$DIMTAD
 70
     0
  9
$DIMZIN
 70
     0
  9
$DIMBLK
  1

  9
$DIMASO
 70
     1
  9
$DIMSHO
 70
     1
  9
$DIMPOST
  1

  9
$DIMAPOST
  1

  9
$DIMALT
 70
     0
  9
$DIMALTD
 70
     2
  9
$DIMALTF
 40
25.4
  9
$DIMLFAC
 40
1.0
  9
$DIMTOFL
 70
     0
  9
$DIMTVP
 40
0.0
  9
$DIMTIX
 70
     0
  9
$DIMSOXD
 70
     0
  9
$DIMSAH
 70
     0
  9
$DIMBLK1
  1

  9
$DIMBLK2
  1

  9
$DIMSTYLE
  2
Standard
  9
$DIMCLRD
 70
     0
  9
$DIMCLRE
 70
     0
  9
$DIMCLRT
 70
     0
  9
$DIMTFAC
 40
1.0
  9
$DIMGAP
 40
0.09
  9
$DIMJUST
 70
     0
  9
$DIMSD1
 70
     0
  9
$DIMSD2
 70
     0
  9
$DIMTOLJ
 70
     1
  9
$DIMTZIN
 70
     0
  9
$DIMALTZ
 70
     0
  9
$DIMALTTZ
 70
     0
  9
$DIMUPT
 70
     0
  9
$DIMDEC
 70
     4
  9
$DIMTDEC
 70
     4
  9
$DIMALTU
 70
     2
  9
$DIMALTTD
 70
     2
  9
$DIMTXSTY
  7
Standard
  9
$DIMAUNIT
 70
     0
  9
$DIMADEC
 70
     0
  9
$DIMALTRND
 40
0.0
  9
$DIMAZIN
 70
     0
  9
$DIMDSEP
 70
    46
  9
$DIMATFIT
 70
     3
  9
$DIMFRAC
 70
     0
  9
$DIMLDRBLK
  1

  9
$DIMLUNIT
 70
     2
  9
$DIMLWD
 70
    -2
  9
$DIMLWE
 70
    -2
  9
$DIMTMOVE
 70
     0
  9
$LUNITS
 70
     2
  9
$LUPREC
 70
     4
  9
$SKETCHINC
 40
0.1
  9
$FILLETRAD
 40
0.0
  9
$AUNITS
 70
     0
  9
$AUPREC
 70
     2
  9
$MENU
  1
.
  9
$ELEVATION
 40
0.0
  9
$PELEVATION
 40
0.0
  9
$THICKNESS
 40
0.0
  9
$LIMCHECK
 70
     0
  9
$CHAMFERA
 40
0.0
  9
$CHAMFERB
 40
0.0
  9
$CHAMFERC
 40
0.0
  9
$CHAMFERD
 40
0.0
  9
$SKPOLY
 70
     0
  9
$TDCREATE
 40
2455020.457856620
  9
$TDUCREATE
 40
2455020.332856620
  9
$TDUPDATE
 40
2455064.674337917
  9
$TDUUPDATE
 40
2455064.549337917
  9
$TDINDWG
 40
0.6895053819
  9
$TDUSRTIMER
 40
0.6895051968
  9
$USRTIMER
 70
     1
  9
$ANGBASE
 50
0.0
  9
$ANGDIR
 70
     0
  9
$PDMODE
 70
     0
  9
$PDSIZE
 40
0.0
  9
$PLINEWID
 40
0.0
  9
$SPLFRAME
 70
     0
  9
$SPLINETYPE
 70
     6
  9
$SPLINESEGS
 70
     8
  9
$HANDSEED
  5
12A8A
  9
$SURFTAB1
 70
     6
  9
$SURFTAB2
 70
     6
  9
$SURFTYPE
 70
     6
  9
$SURFU
 70
     6
  9
$SURFV
 70
     6
  9
$UCSBASE
  2

  9
$UCSNAME
  2

  9
$UCSORG
 10
0.0
 20
0.0
 30
0.0
  9
$UCSXDIR
 10
1.0
 20
0.0
 30
0.0
  9
$UCSYDIR
 10
0.0
 20
1.0
 30
0.0
  9
$UCSORTHOREF
  2

  9
$UCSORTHOVIEW
 70
     0
  9
$UCSORGTOP
 10
0.0
 20
0.0
 30
0.0
  9
$UCSORGBOTTOM
 10
0.0
 20
0.0
 30
0.0
  9
$UCSORGLEFT
 10
0.0
 20
0.0
 30
0.0
  9
$UCSORGRIGHT
 10
0.0
 20
0.0
 30
0.0
  9
$UCSORGFRONT
 10
0.0
 20
0.0
 30
0.0
  9
$UCSORGBACK
 10
0.0
 20
0.0
 30
0.0
  9
$PUCSBASE
  2

  9
$PUCSNAME
  2

  9
$PUCSORG
 10
0.0
 20
0.0
 30
0.0
  9
$PUCSXDIR
 10
1.0
 20
0.0
 30
0.0
  9
$PUCSYDIR
 10
0.0
 20
1.0
 30
0.0
  9
$PUCSORTHOREF
  2

  9
$PUCSORTHOVIEW
 70
     0
  9
$PUCSORGTOP
 10
0.0
 20
0.0
 30
0.0
  9
$PUCSORGBOTTOM
 10
0.0
 20
0.0
 30
0.0
  9
$PUCSORGLEFT
 10
0.0
 20
0.0
 30
0.0
  9
$PUCSORGRIGHT
 10
0.0
 20
0.0
 30
0.0
  9
$PUCSORGFRONT
 10
0.0
 20
0.0
 30
0.0
  9
$PUCSORGBACK
 10
0.0
 20
0.0
 30
0.0
  9
$USERI1
 70
     0
  9
$USERI2
 70
     0
  9
$USERI3
 70
     0
  9
$USERI4
 70
     0
  9
$USERI5
 70
     0
  9
$USERR1
 40
0.0
  9
$USERR2
 40
0.0
  9
$USERR3
 40
0.0
  9
$USERR4
 40
0.0
  9
$USERR5
 40
0.0
  9
$WORLDVIEW
 70
     1
  9
$SHADEDGE
 70
     3
  9
$SHADEDIF
 70
    70
  9
$TILEMODE
 70
     1
  9
$MAXACTVP
 70
    64
  9
$PINSBASE
 10
0.0
 20
0.0
 30
0.0
  9
$PLIMCHECK
 70
     0
  9
$PEXTMIN
 10
0.0
 20
0.0
 30
0.0
  9
$PEXTMAX
 10
0.0
 20
0.0
 30
0.0
  9
$PLIMMIN
 10
0.0
 20
0.0
  9
$PLIMMAX
 10
12.0
 20
9.0
  9
$UNITMODE
 70
     0
  9
$VISRETAIN
 70
     1
  9
$PLINEGEN
 70
     0
  9
$PSLTSCALE
 70
     1
  9
$TREEDEPTH
 70
  3020
  9
$CMLSTYLE
  2
Standard
  9
$CMLJUST
 70
     0
  9
$CMLSCALE
 40
1.0
  9
$PROXYGRAPHICS
 70
     1
  9
$MEASUREMENT
 70
     1
  9
$CELWEIGHT
370
    -1
  9
$ENDCAPS
280
     0
  9
$JOINSTYLE
280
     0
  9
$LWDISPLAY
290
     0
  9
$INSUNITS
 70
     4
  9
$HYPERLINKBASE
  1

  9
$STYLESHEET
  1

  9
$XEDIT
290
     1
  9
$CEPSNTYPE
380
     0
  9
$PSTYLEMODE
290
     1
  9
$FINGERPRINTGUID
  2
{3918AD87-E185-4CB7-8CA6-A53EEA96738C}
  9
$VERSIONGUID
  2
{D5B5C8EF-2FD5-4D0F-BD44-D5D505843768}
  9
$EXTNAMES
290
     1
  9
$PSVPSCALE
 40
0.0
  9
$OLESTARTUP
290
     0
  0
ENDSEC
  0
SECTION
  2
CLASSES
  0
CLASS
  1
ACDBDICTIONARYWDFLT
  2
AcDbDictionaryWithDefault
  3
ObjectDBX Classes
 90
        0
280
     0
281
     0
  0
CLASS
  1
ACDBPLACEHOLDER
  2
AcDbPlaceHolder
  3
ObjectDBX Classes
 90
        0
280
     0
281
     0
  0
CLASS
  1
LAYOUT
  2
AcDbLayout
  3
ObjectDBX Classes
 90
        0
280
     0
281
     0
  0
CLASS
  1
DICTIONARYVAR
  2
AcDbDictionaryVar
  3
ObjectDBX Classes
 90
        0
280
     0
281
     0
  0
CLASS
  1
TABLESTYLE
  2
AcDbTableStyle
  3
ObjectDBX Classes
 90
     4095
280
     0
281
     0
  0
CLASS
  1
MATERIAL
  2
AcDbMaterial
  3
ObjectDBX Classes
 90
     1024
280
     0
281
     0
  0
CLASS
  1
VISUALSTYLE
  2
AcDbVisualStyle
  3
ObjectDBX Classes
 90
     4095
280
     0
281
     0
  0
CLASS
  1
EXACXREFPANELOBJECT
  2
ExAcXREFPanelObject
  3
EXAC_ESW
 90
     1025
280
     0
281
     0
  0
CLASS
  1
NPOCOLLECTION
  2
AcDbImpNonPersistentObjectsCollection
  3
ObjectDBX Classes
 90
     1153
280
     0
281
     0
  0
CLASS
  1
AEC_NOTIFICATION_TRACKER
  2
AecDbNotificationTracker
  3
AecBase50|Product Desc: Autodesk Architectural Desktop 2007 |Company: Autodesk,Inc. |WEB Address: www.autodesk.com
 90
      129
280
     0
281
     0
  0
CLASS
  1
AEC_DISP_REP_ANCHOR_BUB_TO_GRID
  2
AecDbDispRepAnchorBubToGrid
  3
AecStructureBase50|Product Desc: Autodesk Architectural Desktop 2007 |Company: Autodesk,Inc. |WEB Address: www.autodesk.com
 90
      129
280
     0
281
     0
  0
CLASS
  1
AEC_DISP_PROPS_ENT
  2
AecDbDispPropsEnt
  3
AecBase50|Product Desc: Autodesk Architectural Desktop 2007 |Company: Autodesk,Inc. |WEB Address: www.autodesk.com
 90
      129
280
     0
281
     0
  0
CLASS
  1
AEC_DISP_REP_ANCHOR_BUB_TO_GRID_MODEL
  2
AecDbDispRepAnchorBubToGridMdl
  3
AecStructureBase50|Product Desc: Autodesk Architectural Desktop 2007 |Company: Autodesk,Inc. |WEB Address: www.autodesk.com
 90
      129
280
     0
281
     0
  0
CLASS
  1
AEC_DISP_REP_ANCHOR_BUB_TO_GRID_RCP
  2
AecDbDispRepAnchorBubToGridRcp
  3
AecStructureBase50|Product Desc: Autodesk Architectural Desktop 2007 |Company: Autodesk,Inc. |WEB Address: www.autodesk.com
 90
      129
280
     0
281
     0
  0
CLASS
  1
AEC_DISP_REP_COLUMN_GRID
  2
AecDbDispRepColumnGrid
  3
AecStructureBase50|Product Desc: Autodesk Architectural Desktop 2007 |Company: Autodesk,Inc. |WEB Address: www.autodesk.com
 90
      129
280
     0
281
     0
  0
CLASS
  1
AEC_VARS_DWG_SETUP
  2
AecDbVarsDwgSetup
  3
AecBase50|Product Desc: Autodesk Architectural Desktop 2007 |Company: Autodesk,Inc. |WEB Address: www.autodesk.com
 90
      129
280
     0
281
     0
  0
CLASS
  1
AEC_DISP_PROPS_LAYOUT_GRID2D
  2
AecDbDispPropsLayoutGrid2d
  3
AecBase50|Product Desc: Autodesk Architectural Desktop 2007 |Company: Autodesk,Inc. |WEB Address: www.autodesk.com
 90
      129
280
     0
281
     0
  0
CLASS
  1
AEC_DISP_REP_COLUMN_GRID_MODEL
  2
AecDbDispRepColumnGridModel
  3
AecStructureBase50|Product Desc: Autodesk Architectural Desktop 2007 |Company: Autodesk,Inc. |WEB Address: www.autodesk.com
 90
      129
280
     0
281
     0
  0
CLASS
  1
AEC_DISP_REP_COLUMN_GRID_RCP
  2
AecDbDispRepColumnGridRcp
  3
AecStructureBase50|Product Desc: Autodesk Architectural Desktop 2007 |Company: Autodesk,Inc. |WEB Address: www.autodesk.com
 90
      129
280
     0
281
     0
  0
CLASS
  1
AECS_DISP_REP_MEMBER_ELEVATION_DESIGN
  2
AecsDbDispRepMemberElevationDesign
  3
AecStructureBase50|Product Desc: Autodesk Architectural Desktop 2007 |Company: Autodesk,Inc. |WEB Address: www.autodesk.com
 90
      129
280
     0
281
     0
  0
CLASS
  1
AECS_DISP_PROPS_MEMBER_PROJECTED
  2
AecsDbDispPropsMemberProjected
  3
AecStructureBase50|Product Desc: Autodesk Architectural Desktop 2007 |Company: Autodesk,Inc. |WEB Address: www.autodesk.com
 90
      129
280
     0
281
     0
  0
CLASS
  1
AECS_DISP_REP_MEMBER_ELEVATION_DETAIL
  2
AecsDbDispRepMemberElevationDetail
  3
AecStructureBase50|Product Desc: Autodesk Architectural Desktop 2007 |Company: Autodesk,Inc. |WEB Address: www.autodesk.com
 90
      129
280
     0
281
     0
  0
CLASS
  1
AECS_DISP_REP_MEMBER_LOGICAL
  2
AecsDbDispRepMemberLogical
  3
AecStructureBase50|Product Desc: Autodesk Architectural Desktop 2007 |Company: Autodesk,Inc. |WEB Address: www.autodesk.com
 90
      129
280
     0
281
     0
  0
CLASS
  1
AECS_DISP_PROPS_MEMBER_LOGICAL
  2
AecsDbDispPropsMemberLogical
  3
AecStructureBase50|Product Desc: Autodesk Architectural Desktop 2007 |Company: Autodesk,Inc. |WEB Address: www.autodesk.com
 90
      129
280
     0
281
     0
  0
CLASS
  1
AECS_DISP_REP_MEMBER_MODEL_DESIGN
  2
AecsDbDispRepMemberModelDesign
  3
AecStructureBase50|Product Desc: Autodesk Architectural Desktop 2007 |Company: Autodesk,Inc. |WEB Address: www.autodesk.com
 90
      129
280
     0
281
     0
  0
CLASS
  1
AECS_DISP_PROPS_MEMBER
  2
AecsDbDispPropsMember
  3
AecStructureBase50|Product Desc: Autodesk Architectural Desktop 2007 |Company: Autodesk,Inc. |WEB Address: www.autodesk.com
 90
      129
280
     0
281
     0
  0
CLASS
  1
AECS_DISP_REP_MEMBER_MODEL_DETAIL
  2
AecsDbDispRepMemberModelDetail
  3
AecStructureBase50|Product Desc: Autodesk Architectural Desktop 2007 |Company: Autodesk,Inc. |WEB Address: www.autodesk.com
 90
      129
280
     0
281
     0
  0
CLASS
  1
AECS_DISP_REP_MEMBER_PLAN_DESIGN
  2
AecsDbDispRepMemberPlanDesign
  3
AecStructureBase50|Product Desc: Autodesk Architectural Desktop 2007 |Company: Autodesk,Inc. |WEB Address: www.autodesk.com
 90
      129
280
     0
281
     0
  0
CLASS
  1
AECS_DISP_PROPS_MEMBER_PLAN
  2
AecsDbDispPropsMemberPlan
  3
AecStructureBase50|Product Desc: Autodesk Architectural Desktop 2007 |Company: Autodesk,Inc. |WEB Address: www.autodesk.com
 90
      129
280
     0
281
     0
  0
CLASS
  1
AECS_DISP_REP_MEMBER_PLAN_DETAIL
  2
AecsDbDispRepMemberPlanDetail
  3
AecStructureBase50|Product Desc: Autodesk Architectural Desktop 2007 |Company: Autodesk,Inc. |WEB Address: www.autodesk.com
 90
      129
280
     0
281
     0
  0
CLASS
  1
AECS_DISP_REP_MEMBER_PLAN_SKETCH
  2
AecsDbDispRepMemberPlanSketch
  3
AecStructureBase50|Product Desc: Autodesk Architectural Desktop 2007 |Company: Autodesk,Inc. |WEB Address: www.autodesk.com
 90
      129
280
     0
281
     0
  0
CLASS
  1
AECS_DISP_PROPS_MEMBER_PLAN_SKETCH
  2
AecsDbDispPropsMemberPlanSketch
  3
AecStructureBase50|Product Desc: Autodesk Architectural Desktop 2007 |Company: Autodesk,Inc. |WEB Address: www.autodesk.com
 90
      129
280
     0
281
     0
  0
CLASS
  1
AEC_AECDBDISPREPBDGELEVLINEPLAN100
  2
AecDbDispRepBdgElevLinePlan100
  3
AecArchDACHBase50|Product Desc: Autodesk Architectural Desktop 2007 |Company: Autodesk,Inc. |WEB Address: www.autodesk.com
 90
      129
280
     0
281
     0
  0
CLASS
  1
AEC_DISP_PROPS_CLIP_VOLUME
  2
AecDbDispPropsClipVol
  3
AecBase50|Product Desc: Autodesk Architectural Desktop 2007 |Company: Autodesk,Inc. |WEB Address: www.autodesk.com
 90
      129
280
     0
281
     0
  0
CLASS
  1
AEC_AECDBDISPREPBDGSECTIONLINEPLAN100
  2
AecDbDispRepBdgSectionLinePlan100
  3
AecArchDACHBase50|Product Desc: Autodesk Architectural Desktop 2007 |Company: Autodesk,Inc. |WEB Address: www.autodesk.com
 90
      129
280
     0
281
     0
  0
CLASS
  1
AEC_AECDBDISPREPCEILINGGRIDPLAN100
  2
AecDbDispRepCeilingGridPlan100
  3
AecArchDACHBase50|Product Desc: Autodesk Architectural Desktop 2007 |Company: Autodesk,Inc. |WEB Address: www.autodesk.com
 90
      129
280
     0
281
     0
  0
CLASS
  1
AEC_AECDBDISPREPCOLUMNGRIDPLAN100
  2
AecDbDispRepColumnGridPlan100
  3
AecArchDACHBase50|Product Desc: Autodesk Architectural Desktop 2007 |Company: Autodesk,Inc. |WEB Address: www.autodesk.com
 90
      129
280
     0
281
     0
  0
CLASS
  1
AEC_AECDBDISPREPCURTAINWALLLAYOUTPLAN100
  2
AecDbDispRepCurtainWallLayoutPlan100
  3
AecArchDACHBase50|Product Desc: Autodesk Architectural Desktop 2007 |Company: Autodesk,Inc. |WEB Address: www.autodesk.com
 90
      129
280
     0
281
     0
  0
CLASS
  1
AEC_DISP_PROPS_GRID_ASSEMBLY_PLAN
  2
AecDbDispPropsGridAssemblyPlan
  3
AecArchBase50|Product Desc: Autodesk Architectural Desktop 2007 |Company: Autodesk,Inc. |WEB Address: www.autodesk.com
 90
      129
280
     0
281
     0
  0
CLASS
  1
AEC_AECDBDISPREPCURTAINWALLUNITPLAN100
  2
AecDbDispRepCurtainWallUnitPlan100
  3
AecArchDACHBase50|Product Desc: Autodesk Architectural Desktop 2007 |Company: Autodesk,Inc. |WEB Address: www.autodesk.com
 90
      129
280
     0
281
     0
  0
CLASS
  1
AEC_AECDBDISPREPMVBLOCKREFPLAN100
  2
AecDbDispRepMvBlockRefPlan100
  3
AecArchDACHBase50|Product Desc: Autodesk Architectural Desktop 2007 |Company: Autodesk,Inc. |WEB Address: www.autodesk.com
 90
      129
280
     0
281
     0
  0
CLASS
  1
AEC_AECDBDISPREPROOFPLAN100
  2
AecDbDispRepRoofPlan100
  3
AecArchDACHBase50|Product Desc: Autodesk Architectural Desktop 2007 |Company: Autodesk,Inc. |WEB Address: www.autodesk.com
 90
      129
280
     0
281
     0
  0
CLASS
  1
AEC_DISP_PROPS_ROOF
  2
AecDbDispPropsRoof
  3
AecArchBase50|Product Desc: Autodesk Architectural Desktop 2007 |Company: Autodesk,Inc. |WEB Address: www.autodesk.com
 90
      129
280
     0
281
     0
  0
CLASS
  1
AEC_AECDBDISPREPROOFSLABPLAN100
  2
AecDbDispRepRoofSlabPlan100
  3
AecArchDACHBase50|Product Desc: Autodesk Architectural Desktop 2007 |Company: Autodesk,Inc. |WEB Address: www.autodesk.com
 90
      129
280
     0
281
     0
  0
CLASS
  1
AEC_DISP_PROPS_ROOFSLAB_PLAN
  2
AecDbDispPropsRoofSlabPlan
  3
AecArchBase50|Product Desc: Autodesk Architectural Desktop 2007 |Company: Autodesk,Inc. |WEB Address: www.autodesk.com
 90
      129
280
     0
281
     0
  0
CLASS
  1
AEC_AECDBDISPREPSLABPLAN100
  2
AecDbDispRepSlabPlan100
  3
AecArchDACHBase50|Product Desc: Autodesk Architectural Desktop 2007 |Company: Autodesk,Inc. |WEB Address: www.autodesk.com
 90
      129
280
     0
281
     0
  0
CLASS
  1
AEC_DISP_PROPS_SLAB_PLAN
  2
AecDbDispPropsSlabPlan
  3
AecArchBase50|Product Desc: Autodesk Architectural Desktop 2007 |Company: Autodesk,Inc. |WEB Address: www.autodesk.com
 90
      129
280
     0
281
     0
  0
CLASS
  1
AEC_AECDBDISPREPSPACEPLAN100
  2
AecDbDispRepSpacePlan100
  3
AecArchDACHBase50|Product Desc: Autodesk Architectural Desktop 2007 |Company: Autodesk,Inc. |WEB Address: www.autodesk.com
 90
      129
280
     0
281
     0
  0
CLASS
  1
AEC_DISP_PROPS_SPACE_PLAN
  2
AecDbDispPropsSpacePlan
  3
AecArchBase50|Product Desc: Autodesk Architectural Desktop 2007 |Company: Autodesk,Inc. |WEB Address: www.autodesk.com
 90
      129
280
     0
281
     0
  0
CLASS
  1
AEC_AECDBDISPREPWALLPLAN100
  2
AecDbDispRepWallPlan100
  3
AecArchDACHBase50|Product Desc: Autodesk Architectural Desktop 2007 |Company: Autodesk,Inc. |WEB Address: www.autodesk.com
 90
      129
280
     0
281
     0
  0
CLASS
  1
AEC_DISP_PROPS_WALL_PLAN
  2
AecDbDispPropsWallPlan
  3
AecArchBase50|Product Desc: Autodesk Architectural Desktop 2007 |Company: Autodesk,Inc. |WEB Address: www.autodesk.com
 90
      129
280
     0
281
     0
  0
CLASS
  1
AEC_AECDBDISPREPWINDOWASSEMBLYPLAN100
  2
AecDbDispRepWindowAssemblyPlan100
  3
AecArchDACHBase50|Product Desc: Autodesk Architectural Desktop 2007 |Company: Autodesk,Inc. |WEB Address: www.autodesk.com
 90
      129
280
     0
281
     0
  0
CLASS
  1
AEC_AECDBDISPREPZONE100
  2
AecDbDispRepZonePlan100
  3
AecArchDACHBase50|Product Desc: Autodesk Architectural Desktop 2007 |Company: Autodesk,Inc. |WEB Address: www.autodesk.com
 90
      129
280
     0
281
     0
  0
CLASS
  1
AEC_DISP_PROPS_ZONE
  2
AecDbDispPropsZone
  3
AecArchBase50|Product Desc: Autodesk Architectural Desktop 2007 |Company: Autodesk,Inc. |WEB Address: www.autodesk.com
 90
      129
280
     0
281
     0
  0
CLASS
  1
AEC_AECDBDISPREPBDGELEVLINEPLAN50
  2
AecDbDispRepBdgElevLinePlan50
  3
AecArchDACHBase50|Product Desc: Autodesk Architectural Desktop 2007 |Company: Autodesk,Inc. |WEB Address: www.autodesk.com
 90
      129
280
     0
281
     0
  0
CLASS
  1
AEC_AECDBDISPREPBDGSECTIONLINEPLAN50
  2
AecDbDispRepBdgSectionLinePlan50
  3
AecArchDACHBase50|Product Desc: Autodesk Architectural Desktop 2007 |Company: Autodesk,Inc. |WEB Address: www.autodesk.com
 90
      129
280
     0
281
     0
  0
CLASS
  1
AEC_AECDBDISPREPCEILINGGRIDPLAN50
  2
AecDbDispRepCeilingGridPlan50
  3
AecArchDACHBase50|Product Desc: Autodesk Architectural Desktop 2007 |Company: Autodesk,Inc. |WEB Address: www.autodesk.com
 90
      129
280
     0
281
     0
  0
CLASS
  1
AEC_AECDBDISPREPCOLUMNGRIDPLAN50
  2
AecDbDispRepColumnGridPlan50
  3
AecArchDACHBase50|Product Desc: Autodesk Architectural Desktop 2007 |Company: Autodesk,Inc. |WEB Address: www.autodesk.com
 90
      129
280
     0
281
     0
  0
CLASS
  1
AEC_AECDBDISPREPCURTAINWALLLAYOUTPLAN50
  2
AecDbDispRepCurtainWallLayoutPlan50
  3
AecArchDACHBase50|Product Desc: Autodesk Architectural Desktop 2007 |Company: Autodesk,Inc. |WEB Address: www.autodesk.com
 90
      129
280
     0
281
     0
  0
CLASS
  1
AEC_AECDBDISPREPCURTAINWALLUNITPLAN50
  2
AecDbDispRepCurtainWallUnitPlan50
  3
AecArchDACHBase50|Product Desc: Autodesk Architectural Desktop 2007 |Company: Autodesk,Inc. |WEB Address: www.autodesk.com
 90
      129
280
     0
281
     0
  0
CLASS
  1
AEC_AECDBDISPREPMVBLOCKREFPLAN50
  2
AecDbDispRepMvBlockRefPlan50
  3
AecArchDACHBase50|Product Desc: Autodesk Architectural Desktop 2007 |Company: Autodesk,Inc. |WEB Address: www.autodesk.com
 90
      129
280
     0
281
     0
  0
CLASS
  1
AEC_AECDBDISPREPROOFPLAN50
  2
AecDbDispRepRoofPlan50
  3
AecArchDACHBase50|Product Desc: Autodesk Architectural Desktop 2007 |Company: Autodesk,Inc. |WEB Address: www.autodesk.com
 90
      129
280
     0
281
     0
  0
CLASS
  1
AEC_AECDBDISPREPROOFSLABPLAN50
  2
AecDbDispRepRoofSlabPlan50
  3
AecArchDACHBase50|Product Desc: Autodesk Architectural Desktop 2007 |Company: Autodesk,Inc. |WEB Address: www.autodesk.com
 90
      129
280
     0
281
     0
  0
CLASS
  1
AEC_AECDBDISPREPSLABPLAN50
  2
AecDbDispRepSlabPlan50
  3
AecArchDACHBase50|Product Desc: Autodesk Architectural Desktop 2007 |Company: Autodesk,Inc. |WEB Address: www.autodesk.com
 90
      129
280
     0
281
     0
  0
CLASS
  1
AEC_AECDBDISPREPSPACEPLAN50
  2
AecDbDispRepSpacePlan50
  3
AecArchDACHBase50|Product Desc: Autodesk Architectural Desktop 2007 |Company: Autodesk,Inc. |WEB Address: www.autodesk.com
 90
      129
280
     0
281
     0
  0
CLASS
  1
AEC_AECDBDISPREPWALLPLAN50
  2
AecDbDispRepWallPlan50
  3
AecArchDACHBase50|Product Desc: Autodesk Architectural Desktop 2007 |Company: Autodesk,Inc. |WEB Address: www.autodesk.com
 90
      129
280
     0
281
     0
  0
CLASS
  1
AEC_AECDBDISPREPWINDOWASSEMBLYPLAN50
  2
AecDbDispRepWindowAssemblyPlan50
  3
AecArchDACHBase50|Product Desc: Autodesk Architectural Desktop 2007 |Company: Autodesk,Inc. |WEB Address: www.autodesk.com
 90
      129
280
     0
281
     0
  0
CLASS
  1
AEC_AECDBDISPREPZONE50
  2
AecDbDispRepZonePlan50
  3
AecArchDACHBase50|Product Desc: Autodesk Architectural Desktop 2007 |Company: Autodesk,Inc. |WEB Address: www.autodesk.com
 90
      129
280
     0
281
     0
  0
CLASS
  1
AEC_DB_DISP_REP_DIM_GROUP_PLAN100
  2
AecDbDispRepDimGroupPlan100
  3
AecArchDACHBase50|Product Desc: Autodesk Architectural Desktop 2007 |Company: Autodesk,Inc. |WEB Address: www.autodesk.com
 90
      129
280
     0
281
     0
  0
CLASS
  1
AEC_DISP_PROPS_DIM
  2
AecDbDispPropsDimGroup
  3
AecArchDACHBase50|Product Desc: Autodesk Architectural Desktop 2007 |Company: Autodesk,Inc. |WEB Address: www.autodesk.com
 90
      129
280
     0
281
     0
  0
CLASS
  1
AEC_DB_DISP_REP_DIM_GROUP_PLAN50
  2
AecDbDispRepDimGroupPlan50
  3
AecArchDACHBase50|Product Desc: Autodesk Architectural Desktop 2007 |Company: Autodesk,Inc. |WEB Address: www.autodesk.com
 90
      129
280
     0
281
     0
  0
CLASS
  1
AEC_DB_DISP_REP_DIM_GROUP_PLAN
  2
AecDbDispRepDimGroupPlan
  3
AecArchDACHBase50|Product Desc: Autodesk Architectural Desktop 2007 |Company: Autodesk,Inc. |WEB Address: www.autodesk.com
 90
      129
280
     0
281
     0
  0
CLASS
  1
AEC_DISP_REP_DOOR_PLAN_50
  2
AecDbDispRepDoorPlan50
  3
AecArchDACHBase50|Product Desc: Autodesk Architectural Desktop 2007 |Company: Autodesk,Inc. |WEB Address: www.autodesk.com
 90
      129
280
     0
281
     0
  0
CLASS
  1
AEC_DISP_PROPS_DOOR_PLAN_50
  2
AecDbDispPropsDoorPlan50
  3
AecArchDACHBase50|Product Desc: Autodesk Architectural Desktop 2007 |Company: Autodesk,Inc. |WEB Address: www.autodesk.com
 90
      129
280
     0
281
     0
  0
CLASS
  1
AEC_DISP_REP_DOOR_PLAN_HEKTO
  2
AecDbDispRepDoorPlanHekto
  3
AecArchDACHBase50|Product Desc: Autodesk Architectural Desktop 2007 |Company: Autodesk,Inc. |WEB Address: www.autodesk.com
 90
      129
280
     0
281
     0
  0
CLASS
  1
AEC_DISP_PROPS_DOOR_PLAN_100
  2
AecDbDispPropsDoorPlan100
  3
AecArchDACHBase50|Product Desc: Autodesk Architectural Desktop 2007 |Company: Autodesk,Inc. |WEB Address: www.autodesk.com
 90
      129
280
     0
281
     0
  0
CLASS
  1
AEC_DISP_REP_DOOR_THRESHOLD_SYMBOL_PLAN
  2
AecDbDispRepDoorThresholdSymbolPlan
  3
AecArchDACHBase50|Product Desc: Autodesk Architectural Desktop 2007 |Company: Autodesk,Inc. |WEB Address: www.autodesk.com
 90
      129
280
     0
281
     0
  0
CLASS
  1
AEC_DISP_PROPS_DOOR_THRESHOLD_SYMBOL_PLAN
  2
AecDbDispPropsDoorThresholdSymbolPlan
  3
AecArchDACHBase50|Product Desc: Autodesk Architectural Desktop 2007 |Company: Autodesk,Inc. |WEB Address: www.autodesk.com
 90
      129
280
     0
281
     0
  0
CLASS
  1
AEC_DISPREPAECDBDISPREPMASSELEMPLAN100
  2
AecDbDispRepMassElemPlan100
  3
AecArchDACHBase50|Product Desc: Autodesk Architectural Desktop 2007 |Company: Autodesk,Inc. |WEB Address: www.autodesk.com
 90
      129
280
     0
281
     0
  0
CLASS
  1
AEC_DISPROPSMASSELEMPLANCOMMON
  2
AecDbDispPropsMassElemPlanCommon
  3
AecArchDACHBase50|Product Desc: Autodesk Architectural Desktop 2007 |Company: Autodesk,Inc. |WEB Address: www.autodesk.com
 90
      129
280
     0
281
     0
  0
CLASS
  1
AEC_DISPREPAECDBDISPREPMASSELEMPLAN50
  2
AecDbDispRepMassElemPlan50
  3
AecArchDACHBase50|Product Desc: Autodesk Architectural Desktop 2007 |Company: Autodesk,Inc. |WEB Address: www.autodesk.com
 90
      129
280
     0
281
     0
  0
CLASS
  1
AEC_DISPREPAECDBDISPREPMASSGROUPPLAN100
  2
AecDbDispRepMassGroupPlan100
  3
AecArchDACHBase50|Product Desc: Autodesk Architectural Desktop 2007 |Company: Autodesk,Inc. |WEB Address: www.autodesk.com
 90
      129
280
     0
281
     0
  0
CLASS
  1
AEC_DISPROPSMASSGROUPPLANCOMMON
  2
AecDbDispPropsMassGroupPlanCommon
  3
AecArchDACHBase50|Product Desc: Autodesk Architectural Desktop 2007 |Company: Autodesk,Inc. |WEB Address: www.autodesk.com
 90
      129
280
     0
281
     0
  0
CLASS
  1
AEC_DISPREPAECDBDISPREPMASSGROUPPLAN50
  2
AecDbDispRepMassGroupPlan50
  3
AecArchDACHBase50|Product Desc: Autodesk Architectural Desktop 2007 |Company: Autodesk,Inc. |WEB Address: www.autodesk.com
 90
      129
280
     0
281
     0
  0
CLASS
  1
AEC_DISPREPAECDBDISPREPOPENINGPLAN100
  2
AecDbDispRepOpeningPlan100
  3
AecArchDACHBase50|Product Desc: Autodesk Architectural Desktop 2007 |Company: Autodesk,Inc. |WEB Address: www.autodesk.com
 90
      129
280
     0
281
     0
  0
CLASS
  1
AEC_DISPROPSOPENINGPLANCOMMONHATCHED
  2
AecDbDispPropsOpeningPlanCommonHatched
  3
AecArchDACHBase50|Product Desc: Autodesk Architectural Desktop 2007 |Company: Autodesk,Inc. |WEB Address: www.autodesk.com
 90
      129
280
     0
281
     0
  0
CLASS
  1
AEC_DISPREPAECDBDISPREPOPENINGPLAN50
  2
AecDbDispRepOpeningPlan50
  3
AecArchDACHBase50|Product Desc: Autodesk Architectural Desktop 2007 |Company: Autodesk,Inc. |WEB Address: www.autodesk.com
 90
      129
280
     0
281
     0
  0
CLASS
  1
AEC_DISPREPAECDBDISPREPOPENINGPLANREFLECTED
  2
AecDbDispRepOpeningPlanReflected
  3
AecArchDACHBase50|Product Desc: Autodesk Architectural Desktop 2007 |Company: Autodesk,Inc. |WEB Address: www.autodesk.com
 90
      129
280
     0
281
     0
  0
CLASS
  1
AEC_DISPROPSOPENINGPLANCOMMON
  2
AecDbDispPropsOpeningPlanCommon
  3
AecArchDACHBase50|Product Desc: Autodesk Architectural Desktop 2007 |Company: Autodesk,Inc. |WEB Address: www.autodesk.com
 90
      129
280
     0
281
     0
  0
CLASS
  1
AEC_DISPREPAECDBDISPREPOPENINGSILLPLAN
  2
AecDbDispRepOpeningSillPlan
  3
AecArchDACHBase50|Product Desc: Autodesk Architectural Desktop 2007 |Company: Autodesk,Inc. |WEB Address: www.autodesk.com
 90
      129
280
     0
281
     0
  0
CLASS
  1
AEC_DISPROPSOPENINGSILLPLAN
  2
AecDbDispPropsOpeningSillPlan
  3
AecArchDACHBase50|Product Desc: Autodesk Architectural Desktop 2007 |Company: Autodesk,Inc. |WEB Address: www.autodesk.com
 90
      129
280
     0
281
     0
  0
CLASS
  1
AEC_DISP_REP_RAILING_PLAN_100
  2
AecDbDispRepRailingPlan100
  3
AecArchDACHBase50|Product Desc: Autodesk Architectural Desktop 2007 |Company: Autodesk,Inc. |WEB Address: www.autodesk.com
 90
      129
280
     0
281
     0
  0
CLASS
  1
AEC_DISP_ROPS_RAILING_PLAN_100
  2
AecDbDispPropsRailingPlan100
  3
AecArchDACHBase50|Product Desc: Autodesk Architectural Desktop 2007 |Company: Autodesk,Inc. |WEB Address: www.autodesk.com
 90
      129
280
     0
281
     0
  0
CLASS
  1
AEC_DISP_REP_RAILING_PLAN_50
  2
AecDbDispRepRailingPlan50
  3
AecArchDACHBase50|Product Desc: Autodesk Architectural Desktop 2007 |Company: Autodesk,Inc. |WEB Address: www.autodesk.com
 90
      129
280
     0
281
     0
  0
CLASS
  1
AEC_DISP_ROPS_RAILING_PLAN_50
  2
AecDbDispPropsRailingPlan50
  3
AecArchDACHBase50|Product Desc: Autodesk Architectural Desktop 2007 |Company: Autodesk,Inc. |WEB Address: www.autodesk.com
 90
      129
280
     0
281
     0
  0
CLASS
  1
AEC_DISP_REP_STAIR_PLAN_100
  2
AecDbDispRepStairPlan100
  3
AecArchDACHBase50|Product Desc: Autodesk Architectural Desktop 2007 |Company: Autodesk,Inc. |WEB Address: www.autodesk.com
 90
      129
280
     0
281
     0
  0
CLASS
  1
AEC_DISP_ROPS_STAIR_PLAN_100
  2
AecDbDispPropsStairPlan100
  3
AecArchDACHBase50|Product Desc: Autodesk Architectural Desktop 2007 |Company: Autodesk,Inc. |WEB Address: www.autodesk.com
 90
      129
280
     0
281
     0
  0
CLASS
  1
AEC_DISP_REP_STAIR_PLAN_50
  2
AecDbDispRepStairPlan50
  3
AecArchDACHBase50|Product Desc: Autodesk Architectural Desktop 2007 |Company: Autodesk,Inc. |WEB Address: www.autodesk.com
 90
      129
280
     0
281
     0
  0
CLASS
  1
AEC_DISP_ROPS_STAIR_PLAN_50
  2
AecDbDispPropsStairPlan50
  3
AecArchDACHBase50|Product Desc: Autodesk Architectural Desktop 2007 |Company: Autodesk,Inc. |WEB Address: www.autodesk.com
 90
      129
280
     0
281
     0
  0
CLASS
  1
AEC_DISP_REP_WINDOW_PLAN_100
  2
AecDbDispRepWindowPlan100
  3
AecArchDACHBase50|Product Desc: Autodesk Architectural Desktop 2007 |Company: Autodesk,Inc. |WEB Address: www.autodesk.com
 90
      129
280
     0
281
     0
  0
CLASS
  1
AEC_DISP_PROPS_WINDOW_PLAN_100
  2
AecDbDispPropsWindowPlan100
  3
AecArchDACHBase50|Product Desc: Autodesk Architectural Desktop 2007 |Company: Autodesk,Inc. |WEB Address: www.autodesk.com
 90
      129
280
     0
281
     0
  0
CLASS
  1
AEC_DISP_REP_WINDOW_PLAN_50
  2
AecDbDispRepWindowPlan50
  3
AecArchDACHBase50|Product Desc: Autodesk Architectural Desktop 2007 |Company: Autodesk,Inc. |WEB Address: www.autodesk.com
 90
      129
280
     0
281
     0
  0
CLASS
  1
AEC_DISP_PROPS_WINDOW_PLAN_50
  2
AecDbDispPropsWindowPlan50
  3
AecArchDACHBase50|Product Desc: Autodesk Architectural Desktop 2007 |Company: Autodesk,Inc. |WEB Address: www.autodesk.com
 90
      129
280
     0
281
     0
  0
CLASS
  1
AEC_DISP_REP_2D_SECTION
  2
AecDbDispRep2dSection
  3
AecBase50|Product Desc: Autodesk Architectural Desktop 2007 |Company: Autodesk,Inc. |WEB Address: www.autodesk.com
 90
      129
280
     0
281
     0
  0
CLASS
  1
AEC_DISP_PROPS_2D_SECTION
  2
AecDbDispProps2dSection
  3
AecBase50|Product Desc: Autodesk Architectural Desktop 2007 |Company: Autodesk,Inc. |WEB Address: www.autodesk.com
 90
      129
280
     0
281
     0
  0
CLASS
  1
AEC_DISP_REP_ANCHOR
  2
AecDbDispRepAnchor
  3
AecBase50|Product Desc: Autodesk Architectural Desktop 2007 |Company: Autodesk,Inc. |WEB Address: www.autodesk.com
 90
      129
280
     0
281
     0
  0
CLASS
  1
AEC_DISP_REP_ANCHOR_ENT_TO_NODE
  2
AecDbDispRepAnchorEntToNode
  3
AecBase50|Product Desc: Autodesk Architectural Desktop 2007 |Company: Autodesk,Inc. |WEB Address: www.autodesk.com
 90
      129
280
     0
281
     0
  0
CLASS
  1
AEC_DISP_REP_CLIP_VOLUME_MODEL
  2
AecDbDispRepClipVolModel
  3
AecBase50|Product Desc: Autodesk Architectural Desktop 2007 |Company: Autodesk,Inc. |WEB Address: www.autodesk.com
 90
      129
280
     0
281
     0
  0
CLASS
  1
AEC_DISP_REP_CLIP_VOLUME_PLAN
  2
AecDbDispRepClipVolPlan
  3
AecBase50|Product Desc: Autodesk Architectural Desktop 2007 |Company: Autodesk,Inc. |WEB Address: www.autodesk.com
 90
      129
280
     0
281
     0
  0
CLASS
  1
AEC_DISP_REP_CLIP_VOLUME_RESULT
  2
AecDbDispRepClipVolResult
  3
AecBase50|Product Desc: Autodesk Architectural Desktop 2007 |Company: Autodesk,Inc. |WEB Address: www.autodesk.com
 90
      129
280
     0
281
     0
  0
CLASS
  1
AEC_DISP_REP_CLIP_VOLUME_RESULT_SUBDIV
  2
AecDbDispRepClipVolResSubDiv
  3
AecBase50|Product Desc: Autodesk Architectural Desktop 2007 |Company: Autodesk,Inc. |WEB Address: www.autodesk.com
 90
      129
280
     0
281
     0
  0
CLASS
  1
AEC_DISP_PROPS_CLIP_VOLUME_RESULT
  2
AecDbDispPropsClipVolResSubDiv
  3
AecBase50|Product Desc: Autodesk Architectural Desktop 2007 |Company: Autodesk,Inc. |WEB Address: www.autodesk.com
 90
      129
280
     0
281
     0
  0
CLASS
  1
AEC_DISP_REP_DISPLAYTHEME
  2
AecDbDispRepDisplayTheme
  3
AecBase50|Product Desc: Autodesk Architectural Desktop 2007 |Company: Autodesk,Inc. |WEB Address: www.autodesk.com
 90
      129
280
     0
281
     0
  0
CLASS
  1
AEC_DISP_PROPS_DISPLAYTHEME
  2
AecDbDispPropsDisplayTheme
  3
AecBase50|Product Desc: Autodesk Architectural Desktop 2007 |Company: Autodesk,Inc. |WEB Address: www.autodesk.com
 90
      129
280
     0
281
     0
  0
CLASS
  1
AEC_DISP_REP_EDITINPLACEPROFILE
  2
AecDbDispRepEditInPlaceProfile
  3
AecBase50|Product Desc: Autodesk Architectural Desktop 2007 |Company: Autodesk,Inc. |WEB Address: www.autodesk.com
 90
      129
280
     0
281
     0
  0
CLASS
  1
AEC_DISP_PROPS_EDITINPLACEPROFILE_MODEL
  2
AecDbDispPropsEditInPlaceProfile
  3
AecBase50|Product Desc: Autodesk Architectural Desktop 2007 |Company: Autodesk,Inc. |WEB Address: www.autodesk.com
 90
      129
280
     0
281
     0
  0
CLASS
  1
AEC_DISP_REP_ENT_REF
  2
AecDbDispRepEntRef
  3
AecBase50|Product Desc: Autodesk Architectural Desktop 2007 |Company: Autodesk,Inc. |WEB Address: www.autodesk.com
 90
      129
280
     0
281
     0
  0
CLASS
  1
AEC_DISP_PROPS_ENT_REF
  2
AecDbDispPropsEntRef
  3
AecBase50|Product Desc: Autodesk Architectural Desktop 2007 |Company: Autodesk,Inc. |WEB Address: www.autodesk.com
 90
      129
280
     0
281
     0
  0
CLASS
  1
AEC_DISP_REP_LAYOUT_CURVE
  2
AecDbDispRepLayoutCurve
  3
AecBase50|Product Desc: Autodesk Architectural Desktop 2007 |Company: Autodesk,Inc. |WEB Address: www.autodesk.com
 90
      129
280
     0
281
     0
  0
CLASS
  1
AEC_DISP_PROPS_LAYOUT_CURVE
  2
AecDbDispPropsLayoutCurve
  3
AecBase50|Product Desc: Autodesk Architectural Desktop 2007 |Company: Autodesk,Inc. |WEB Address: www.autodesk.com
 90
      129
280
     0
281
     0
  0
CLASS
  1
AEC_DISP_REP_LAYOUT_GRID2D
  2
AecDbDispRepLayoutGrid2d
  3
AecBase50|Product Desc: Autodesk Architectural Desktop 2007 |Company: Autodesk,Inc. |WEB Address: www.autodesk.com
 90
      129
280
     0
281
     0
  0
CLASS
  1
AEC_DISP_REP_LAYOUT_GRID3D
  2
AecDbDispRepLayoutGrid3d
  3
AecBase50|Product Desc: Autodesk Architectural Desktop 2007 |Company: Autodesk,Inc. |WEB Address: www.autodesk.com
 90
      129
280
     0
281
     0
  0
CLASS
  1
AEC_DISP_PROPS_LAYOUT_GRID3D
  2
AecDbDispPropsLayoutGrid3d
  3
AecBase50|Product Desc: Autodesk Architectural Desktop 2007 |Company: Autodesk,Inc. |WEB Address: www.autodesk.com
 90
      129
280
     0
281
     0
  0
CLASS
  1
AEC_DISP_REP_MASKBLOCK_REF
  2
AecDbDispRepMaskBlockRef
  3
AecBase50|Product Desc: Autodesk Architectural Desktop 2007 |Company: Autodesk,Inc. |WEB Address: www.autodesk.com
 90
      129
280
     0
281
     0
  0
CLASS
  1
AEC_DISP_PROPS_MASKBLOCK
  2
AecDbDispPropsMaskBlock
  3
AecBase50|Product Desc: Autodesk Architectural Desktop 2007 |Company: Autodesk,Inc. |WEB Address: www.autodesk.com
 90
      129
280
     0
281
     0
  0
CLASS
  1
AEC_DISP_REP_MATERIAL
  2
AecDbDispRepMaterial
  3
AecBase50|Product Desc: Autodesk Architectural Desktop 2007 |Company: Autodesk,Inc. |WEB Address: www.autodesk.com
 90
      129
280
     0
281
     0
  0
CLASS
  1
AEC_DISP_PROPS_MATERIAL
  2
AecDbDispPropsMaterial
  3
AecBase50|Product Desc: Autodesk Architectural Desktop 2007 |Company: Autodesk,Inc. |WEB Address: www.autodesk.com
 90
      129
280
     0
281
     0
  0
CLASS
  1
AEC_DISP_REP_MVBLOCK_REF
  2
AecDbDispRepMvBlockRef
  3
AecBase50|Product Desc: Autodesk Architectural Desktop 2007 |Company: Autodesk,Inc. |WEB Address: www.autodesk.com
 90
      129
280
     0
281
     0
  0
CLASS
  1
AEC_DISP_REP_MVBLOCK_REF_MODEL
  2
AecDbDispRepMvBlockRefModel
  3
AecBase50|Product Desc: Autodesk Architectural Desktop 2007 |Company: Autodesk,Inc. |WEB Address: www.autodesk.com
 90
      129
280
     0
281
     0
  0
CLASS
  1
AEC_DISP_REP_POLYGON_MODEL
  2
AecDbDispRepPolygonModel
  3
AecBase50|Product Desc: Autodesk Architectural Desktop 2007 |Company: Autodesk,Inc. |WEB Address: www.autodesk.com
 90
      129
280
     0
281
     0
  0
CLASS
  1
AEC_DISP_PROPS_POLYGON_MODEL
  2
AecDbDispPropsPolygonModel
  3
AecBase50|Product Desc: Autodesk Architectural Desktop 2007 |Company: Autodesk,Inc. |WEB Address: www.autodesk.com
 90
      129
280
     0
281
     0
  0
CLASS
  1
AEC_DISP_REP_POLYGON_TRUECOLOUR
  2
AecDbDispRepPolygonTrueColour
  3
AecBase50|Product Desc: Autodesk Architectural Desktop 2007 |Company: Autodesk,Inc. |WEB Address: www.autodesk.com
 90
      129
280
     0
281
     0
  0
CLASS
  1
AEC_DISP_PROPS_POLYGON_TRUECOLOUR
  2
AecDbDispPropsPolygonTrueColour
  3
AecBase50|Product Desc: Autodesk Architectural Desktop 2007 |Company: Autodesk,Inc. |WEB Address: www.autodesk.com
 90
      129
280
     0
281
     0
  0
CLASS
  1
AEC_DISP_REP_SLICE
  2
AecDbDispRepSlice
  3
AecBase50|Product Desc: Autodesk Architectural Desktop 2007 |Company: Autodesk,Inc. |WEB Address: www.autodesk.com
 90
      129
280
     0
281
     0
  0
CLASS
  1
AEC_DISP_PROPS_SLICE
  2
AecDbDispPropsSlice
  3
AecBase50|Product Desc: Autodesk Architectural Desktop 2007 |Company: Autodesk,Inc. |WEB Address: www.autodesk.com
 90
      129
280
     0
281
     0
  0
CLASS
  1
AEC_DISP_REP_MASS_ELEM_MODEL
  2
AecDbDispRepMassElemModel
  3
AecBaseEx50|Product Desc: Autodesk Architectural Desktop 2007 |Company: Autodesk,Inc. |WEB Address: www.autodesk.com
 90
      129
280
     0
281
     0
  0
CLASS
  1
AEC_DISP_PROPS_MASS_ELEM_MODEL
  2
AecDbDispPropsMassElem
  3
AecBaseEx50|Product Desc: Autodesk Architectural Desktop 2007 |Company: Autodesk,Inc. |WEB Address: www.autodesk.com
 90
      129
280
     0
281
     0
  0
CLASS
  1
AEC_DISP_REP_MASS_ELEM_SCHEM
  2
AecDbDispRepMassElemSchem
  3
AecBaseEx50|Product Desc: Autodesk Architectural Desktop 2007 |Company: Autodesk,Inc. |WEB Address: www.autodesk.com
 90
      129
280
     0
281
     0
  0
CLASS
  1
AEC_DISP_REP_MASS_GROUP_MODEL
  2
AecDbDispRepMassGroupModel
  3
AecBaseEx50|Product Desc: Autodesk Architectural Desktop 2007 |Company: Autodesk,Inc. |WEB Address: www.autodesk.com
 90
      129
280
     0
281
     0
  0
CLASS
  1
AEC_DISP_PROPS_MASS_GROUP
  2
AecDbDispPropsMassGroup
  3
AecBaseEx50|Product Desc: Autodesk Architectural Desktop 2007 |Company: Autodesk,Inc. |WEB Address: www.autodesk.com
 90
      129
280
     0
281
     0
  0
CLASS
  1
AEC_DISP_REP_MASS_GROUP_PLAN
  2
AecDbDispRepMassGroupPlan
  3
AecBaseEx50|Product Desc: Autodesk Architectural Desktop 2007 |Company: Autodesk,Inc. |WEB Address: www.autodesk.com
 90
      129
280
     0
281
     0
  0
CLASS
  1
AEC_DISP_REP_ANCHOR_TAG_TO_ENT
  2
AecDbDispRepAnchorTagToEnt
  3
AecScheduleData50|Product Desc: Autodesk Architectural Desktop 2007 |Company: Autodesk,Inc. |WEB Address: www.autodesk.com
 90
      129
280
     0
281
     0
  0
CLASS
  1
AEC_DISP_REP_ANCHOR_EXT_TAG_TO_ENT
  2
AecDbDispRepAnchorExtendedTagToEnt
  3
AecScheduleData50|Product Desc: Autodesk Architectural Desktop 2007 |Company: Autodesk,Inc. |WEB Address: www.autodesk.com
 90
      129
280
     0
281
     0
  0
CLASS
  1
AEC_DISP_REP_SCHEDULE_TABLE
  2
AecDbDispRepScheduleTable
  3
AecSchedule50|Product Desc: Autodesk Architectural Desktop 2007 |Company: Autodesk,Inc. |WEB Address: www.autodesk.com
 90
      129
280
     0
281
     0
  0
CLASS
  1
AEC_DISP_PROPS_SCHEDULE_TABLE
  2
AecDbDispPropsScheduleTable
  3
AecSchedule50|Product Desc: Autodesk Architectural Desktop 2007 |Company: Autodesk,Inc. |WEB Address: www.autodesk.com
 90
      129
280
     0
281
     0
  0
CLASS
  1
AEC_DISP_REP_BDG_ELEVLINE_MODEL
  2
AecDbDispRepBdgElevLineModel
  3
AecArchBase50|Product Desc: Autodesk Architectural Desktop 2007 |Company: Autodesk,Inc. |WEB Address: www.autodesk.com
 90
      129
280
     0
281
     0
  0
CLASS
  1
AEC_DISP_REP_BDG_SECTIONLINE_PLAN
  2
AecDbDispRepBdgElevLinePlan
  3
AecArchBase50|Product Desc: Autodesk Architectural Desktop 2007 |Company: Autodesk,Inc. |WEB Address: www.autodesk.com
 90
      129
280
     0
281
     0
  0
CLASS
  1
AEC_DISP_REP_BDG_ELEVLINE_RCP
  2
AecDbDispRepBdgElevLineRcp
  3
AecArchBase50|Product Desc: Autodesk Architectural Desktop 2007 |Company: Autodesk,Inc. |WEB Address: www.autodesk.com
 90
      129
280
     0
281
     0
  0
CLASS
  1
AEC_DISP_REP_BDG_SECTIONLINE_MODEL
  2
AecDbDispRepBdgSectionLineModel
  3
AecArchBase50|Product Desc: Autodesk Architectural Desktop 2007 |Company: Autodesk,Inc. |WEB Address: www.autodesk.com
 90
      129
280
     0
281
     0
  0
CLASS
  1
AEC_DISP_REP_BDG_SECTIONLINE_PLAN
  2
AecDbDispRepBdgSectionLinePlan
  3
AecArchBase50|Product Desc: Autodesk Architectural Desktop 2007 |Company: Autodesk,Inc. |WEB Address: www.autodesk.com
 90
      129
280
     0
281
     0
  0
CLASS
  1
AEC_DISP_REP_BDG_SECTIONLINE_RCP
  2
AecDbDispRepBdgSectionLineRcp
  3
AecArchBase50|Product Desc: Autodesk Architectural Desktop 2007 |Company: Autodesk,Inc. |WEB Address: www.autodesk.com
 90
      129
280
     0
281
     0
  0
CLASS
  1
AEC_DISP_REP_BDG_SECTION_MODEL
  2
AecDbDispRepBdgSectionModel
  3
AecArchBase50|Product Desc: Autodesk Architectural Desktop 2007 |Company: Autodesk,Inc. |WEB Address: www.autodesk.com
 90
      129
280
     0
281
     0
  0
CLASS
  1
AEC_DISP_REP_BDG_SECTION_SUBDIV
  2
AecDbDispRepBdgSectionSubDiv
  3
AecArchBase50|Product Desc: Autodesk Architectural Desktop 2007 |Company: Autodesk,Inc. |WEB Address: www.autodesk.com
 90
      129
280
     0
281
     0
  0
CLASS
  1
AEC_DISP_REP_CEILING_GRID
  2
AecDbDispRepCeilingGrid
  3
AecArchBase50|Product Desc: Autodesk Architectural Desktop 2007 |Company: Autodesk,Inc. |WEB Address: www.autodesk.com
 90
      893
280
     0
281
     0
  0
CLASS
  1
AEC_DISP_REP_CEILING_GRID_MODEL
  2
AecDbDispRepCeilingGridModel
  3
AecArchBase50|Product Desc: Autodesk Architectural Desktop 2007 |Company: Autodesk,Inc. |WEB Address: www.autodesk.com
 90
      129
280
     0
281
     0
  0
CLASS
  1
AEC_DISP_REP_CEILING_GRID_RCP
  2
AecDbDispRepCeilingGridRcp
  3
AecArchBase50|Product Desc: Autodesk Architectural Desktop 2007 |Company: Autodesk,Inc. |WEB Address: www.autodesk.com
 90
      129
280
     0
281
     0
  0
CLASS
  1
AEC_DISP_REP_CURTAIN_WALL_LAYOUT_MODEL
  2
AecDbDispRepCurtainWallLayoutModel
  3
AecArchBase50|Product Desc: Autodesk Architectural Desktop 2007 |Company: Autodesk,Inc. |WEB Address: www.autodesk.com
 90
      129
280
     0
281
     0
  0
CLASS
  1
AEC_DISP_PROPS_GRID_ASSEMBLY_MODEL
  2
AecDbDispPropsGridAssemblyModel
  3
AecArchBase50|Product Desc: Autodesk Architectural Desktop 2007 |Company: Autodesk,Inc. |WEB Address: www.autodesk.com
 90
      129
280
     0
281
     0
  0
CLASS
  1
AEC_DISP_REP_CURTAIN_WALL_LAYOUT_PLAN
  2
AecDbDispRepCurtainWallLayoutPlan
  3
AecArchBase50|Product Desc: Autodesk Architectural Desktop 2007 |Company: Autodesk,Inc. |WEB Address: www.autodesk.com
 90
      129
280
     0
281
     0
  0
CLASS
  1
AEC_DISP_REP_CURTAIN_WALL_UNIT_MODEL
  2
AecDbDispRepCurtainWallUnitModel
  3
AecArchBase50|Product Desc: Autodesk Architectural Desktop 2007 |Company: Autodesk,Inc. |WEB Address: www.autodesk.com
 90
      129
280
     0
281
     0
  0
CLASS
  1
AEC_DISP_REP_CURTAIN_WALL_UNIT_PLAN
  2
AecDbDispRepCurtainWallUnitPlan
  3
AecArchBase50|Product Desc: Autodesk Architectural Desktop 2007 |Company: Autodesk,Inc. |WEB Address: www.autodesk.com
 90
      129
280
     0
281
     0
  0
CLASS
  1
AEC_DISP_REP_DOOR_MODEL
  2
AecDbDispRepDoorModel
  3
AecArchBase50|Product Desc: Autodesk Architectural Desktop 2007 |Company: Autodesk,Inc. |WEB Address: www.autodesk.com
 90
      129
280
     0
281
     0
  0
CLASS
  1
AEC_DISP_PROPS_DOOR
  2
AecDbDispPropsDoor
  3
AecArchBase50|Product Desc: Autodesk Architectural Desktop 2007 |Company: Autodesk,Inc. |WEB Address: www.autodesk.com
 90
      129
280
     0
281
     0
  0
CLASS
  1
AEC_DISP_REP_DOOR_ELEV
  2
AecDbDispRepDoorElev
  3
AecArchBase50|Product Desc: Autodesk Architectural Desktop 2007 |Company: Autodesk,Inc. |WEB Address: www.autodesk.com
 90
      129
280
     0
281
     0
  0
CLASS
  1
AEC_DISP_REP_DOOR_PLAN
  2
AecDbDispRepDoorPlan
  3
AecArchBase50|Product Desc: Autodesk Architectural Desktop 2007 |Company: Autodesk,Inc. |WEB Address: www.autodesk.com
 90
      129
280
     0
281
     0
  0
CLASS
  1
AEC_DISP_REP_DOOR_NOMINAL
  2
AecDbDispRepDoorNominal
  3
AecArchBase50|Product Desc: Autodesk Architectural Desktop 2007 |Company: Autodesk,Inc. |WEB Address: www.autodesk.com
 90
      129
280
     0
281
     0
  0
CLASS
  1
AEC_DISP_PROPS_DOOR_NOMINAL
  2
AecDbDispPropsDoorNominal
  3
AecArchBase50|Product Desc: Autodesk Architectural Desktop 2007 |Company: Autodesk,Inc. |WEB Address: www.autodesk.com
 90
      129
280
     0
281
     0
  0
CLASS
  1
AEC_DISP_REP_DOOR_RCP
  2
AecDbDispRepDoorRcp
  3
AecArchBase50|Product Desc: Autodesk Architectural Desktop 2007 |Company: Autodesk,Inc. |WEB Address: www.autodesk.com
 90
      129
280
     0
281
     0
  0
CLASS
  1
AEC_DISP_REP_DOOR_THRESHOLD_PLAN
  2
AecDbDispRepDoorThresholdPlan
  3
AecArchBase50|Product Desc: Autodesk Architectural Desktop 2007 |Company: Autodesk,Inc. |WEB Address: www.autodesk.com
 90
      129
280
     0
281
     0
  0
CLASS
  1
AEC_DISP_PROPS_DOOR_THRESHOLD_PLAN
  2
AecDbDispPropsDoorThresholdPlan
  3
AecArchBase50|Product Desc: Autodesk Architectural Desktop 2007 |Company: Autodesk,Inc. |WEB Address: www.autodesk.com
 90
      129
280
     0
281
     0
  0
CLASS
  1
AEC_DISP_REP_MASKBLOCK_REF_RCP
  2
AecDbDispRepMaskBlockRefRcp
  3
AecArchBase50|Product Desc: Autodesk Architectural Desktop 2007 |Company: Autodesk,Inc. |WEB Address: www.autodesk.com
 90
      129
280
     0
281
     0
  0
CLASS
  1
AEC_DISP_REP_MASS_ELEM_RCP
  2
AecDbDispRepMassElemRcp
  3
AecArchBase50|Product Desc: Autodesk Architectural Desktop 2007 |Company: Autodesk,Inc. |WEB Address: www.autodesk.com
 90
      129
280
     0
281
     0
  0
CLASS
  1
AEC_DISP_REP_MASS_GROUP_RCP
  2
AecDbDispRepMassGroupRcp
  3
AecArchBase50|Product Desc: Autodesk Architectural Desktop 2007 |Company: Autodesk,Inc. |WEB Address: www.autodesk.com
 90
      129
280
     0
281
     0
  0
CLASS
  1
AEC_DISP_REP_MVBLOCK_REF_RCP
  2
AecDbDispRepMvBlockRefRcp
  3
AecArchBase50|Product Desc: Autodesk Architectural Desktop 2007 |Company: Autodesk,Inc. |WEB Address: www.autodesk.com
 90
      129
280
     0
281
     0
  0
CLASS
  1
AEC_DISP_REP_OPENING
  2
AecDbDispRepOpening
  3
AecArchBase50|Product Desc: Autodesk Architectural Desktop 2007 |Company: Autodesk,Inc. |WEB Address: www.autodesk.com
 90
      129
280
     0
281
     0
  0
CLASS
  1
AEC_DISP_PROPS_OPENING
  2
AecDbDispPropsOpening
  3
AecArchBase50|Product Desc: Autodesk Architectural Desktop 2007 |Company: Autodesk,Inc. |WEB Address: www.autodesk.com
 90
      129
280
     0
281
     0
  0
CLASS
  1
AEC_DISP_REP_OPENING_MODEL
  2
AecDbDispRepOpeningModel
  3
AecArchBase50|Product Desc: Autodesk Architectural Desktop 2007 |Company: Autodesk,Inc. |WEB Address: www.autodesk.com
 90
      129
280
     0
281
     0
  0
CLASS
  1
AEC_DISP_REP_RAILING_MODEL
  2
AecDbDispRepRailingModel
  3
AecArchBase50|Product Desc: Autodesk Architectural Desktop 2007 |Company: Autodesk,Inc. |WEB Address: www.autodesk.com
 90
      129
280
     0
281
     0
  0
CLASS
  1
AEC_DISP_PROPS_RAILING_MODEL
  2
AecDbDispPropsRailingModel
  3
AecArchBase50|Product Desc: Autodesk Architectural Desktop 2007 |Company: Autodesk,Inc. |WEB Address: www.autodesk.com
 90
      129
280
     0
281
     0
  0
CLASS
  1
AEC_DISP_REP_RAILING_PLAN
  2
AecDbDispRepRailingPlan
  3
AecArchBase50|Product Desc: Autodesk Architectural Desktop 2007 |Company: Autodesk,Inc. |WEB Address: www.autodesk.com
 90
      129
280
     0
281
     0
  0
CLASS
  1
AEC_DISP_PROPS_RAILING_PLAN
  2
AecDbDispPropsRailingPlan
  3
AecArchBase50|Product Desc: Autodesk Architectural Desktop 2007 |Company: Autodesk,Inc. |WEB Address: www.autodesk.com
 90
      129
280
     0
281
     0
  0
CLASS
  1
AEC_DISP_REP_ROOF_MODEL
  2
AecDbDispRepRoofModel
  3
AecArchBase50|Product Desc: Autodesk Architectural Desktop 2007 |Company: Autodesk,Inc. |WEB Address: www.autodesk.com
 90
      129
280
     0
281
     0
  0
CLASS
  1
AEC_DISP_REP_ROOF_PLAN
  2
AecDbDispRepRoofPlan
  3
AecArchBase50|Product Desc: Autodesk Architectural Desktop 2007 |Company: Autodesk,Inc. |WEB Address: www.autodesk.com
 90
      129
280
     0
281
     0
  0
CLASS
  1
AEC_DISP_REP_ROOF_RCP
  2
AecDbDispRepRoofRcp
  3
AecArchBase50|Product Desc: Autodesk Architectural Desktop 2007 |Company: Autodesk,Inc. |WEB Address: www.autodesk.com
 90
      129
280
     0
281
     0
  0
CLASS
  1
AEC_DISP_REP_SLAB_MODEL
  2
AecDbDispRepSlabModel
  3
AecArchBase50|Product Desc: Autodesk Architectural Desktop 2007 |Company: Autodesk,Inc. |WEB Address: www.autodesk.com
 90
      129
280
     0
281
     0
  0
CLASS
  1
AEC_DISP_PROPS_SLAB
  2
AecDbDispPropsSlab
  3
AecArchBase50|Product Desc: Autodesk Architectural Desktop 2007 |Company: Autodesk,Inc. |WEB Address: www.autodesk.com
 90
      129
280
     0
281
     0
  0
CLASS
  1
AEC_DISP_REP_ROOFSLAB_MODEL
  2
AecDbDispRepRoofSlabModel
  3
AecArchBase50|Product Desc: Autodesk Architectural Desktop 2007 |Company: Autodesk,Inc. |WEB Address: www.autodesk.com
 90
      129
280
     0
281
     0
  0
CLASS
  1
AEC_DISP_PROPS_ROOFSLAB
  2
AecDbDispPropsRoofSlab
  3
AecArchBase50|Product Desc: Autodesk Architectural Desktop 2007 |Company: Autodesk,Inc. |WEB Address: www.autodesk.com
 90
      129
280
     0
281
     0
  0
CLASS
  1
AEC_DISP_REP_SLAB_PLAN
  2
AecDbDispRepSlabPlan
  3
AecArchBase50|Product Desc: Autodesk Architectural Desktop 2007 |Company: Autodesk,Inc. |WEB Address: www.autodesk.com
 90
      129
280
     0
281
     0
  0
CLASS
  1
AEC_DISP_REP_ROOFSLAB_PLAN
  2
AecDbDispRepRoofSlabPlan
  3
AecArchBase50|Product Desc: Autodesk Architectural Desktop 2007 |Company: Autodesk,Inc. |WEB Address: www.autodesk.com
 90
      129
280
     0
281
     0
  0
CLASS
  1
AEC_DISP_REP_SPACE_DECOMPOSED
  2
AecDbDispRepSpaceDecomposed
  3
AecArchBase50|Product Desc: Autodesk Architectural Desktop 2007 |Company: Autodesk,Inc. |WEB Address: www.autodesk.com
 90
      129
280
     0
281
     0
  0
CLASS
  1
AEC_DISP_PROPS_SPACE_DECOMPOSED
  2
AecDbDispPropsSpaceDecomposed
  3
AecArchBase50|Product Desc: Autodesk Architectural Desktop 2007 |Company: Autodesk,Inc. |WEB Address: www.autodesk.com
 90
      129
280
     0
281
     0
  0
CLASS
  1
AEC_DISP_REP_SPACE_MODEL
  2
AecDbDispRepSpaceModel
  3
AecArchBase50|Product Desc: Autodesk Architectural Desktop 2007 |Company: Autodesk,Inc. |WEB Address: www.autodesk.com
 90
      129
280
     0
281
     0
  0
CLASS
  1
AEC_DISP_PROPS_SPACE_MODEL
  2
AecDbDispPropsSpaceModel
  3
AecArchBase50|Product Desc: Autodesk Architectural Desktop 2007 |Company: Autodesk,Inc. |WEB Address: www.autodesk.com
 90
      129
280
     0
281
     0
  0
CLASS
  1
AEC_DISP_REP_SPACE_PLAN
  2
AecDbDispRepSpacePlan
  3
AecArchBase50|Product Desc: Autodesk Architectural Desktop 2007 |Company: Autodesk,Inc. |WEB Address: www.autodesk.com
 90
      129
280
     0
281
     0
  0
CLASS
  1
AEC_DISP_REP_SPACE_RCP
  2
AecDbDispRepSpaceRcp
  3
AecArchBase50|Product Desc: Autodesk Architectural Desktop 2007 |Company: Autodesk,Inc. |WEB Address: www.autodesk.com
 90
      129
280
     0
281
     0
  0
CLASS
  1
AEC_DISP_REP_SPACE_VOLUME
  2
AecDbDispRepSpaceVolume
  3
AecArchBase50|Product Desc: Autodesk Architectural Desktop 2007 |Company: Autodesk,Inc. |WEB Address: www.autodesk.com
 90
      129
280
     0
281
     0
  0
CLASS
  1
AEC_DISP_REP_STAIR_MODEL
  2
AecDbDispRepStairModel
  3
AecArchBase50|Product Desc: Autodesk Architectural Desktop 2007 |Company: Autodesk,Inc. |WEB Address: www.autodesk.com
 90
      129
280
     0
281
     0
  0
CLASS
  1
AEC_DISP_PROPS_STAIR_MODEL
  2
AecDbDispPropsStairModel
  3
AecArchBase50|Product Desc: Autodesk Architectural Desktop 2007 |Company: Autodesk,Inc. |WEB Address: www.autodesk.com
 90
      129
280
     0
281
     0
  0
CLASS
  1
AEC_DISP_REP_STAIR_PLAN
  2
AecDbDispRepStairPlan
  3
AecArchBase50|Product Desc: Autodesk Architectural Desktop 2007 |Company: Autodesk,Inc. |WEB Address: www.autodesk.com
 90
      129
280
     0
281
     0
  0
CLASS
  1
AEC_DISP_PROPS_STAIR_PLAN
  2
AecDbDispPropsStairPlan
  3
AecArchBase50|Product Desc: Autodesk Architectural Desktop 2007 |Company: Autodesk,Inc. |WEB Address: www.autodesk.com
 90
      129
280
     0
281
     0
  0
CLASS
  1
AEC_DISP_REP_STAIR_PLAN_OVERLAPPING
  2
AecDbDispRepStairPlanOverlapping
  3
AecArchBase50|Product Desc: Autodesk Architectural Desktop 2007 |Company: Autodesk,Inc. |WEB Address: www.autodesk.com
 90
      129
280
     0
281
     0
  0
CLASS
  1
AEC_DISP_PROPS_STAIR_PLAN_OVERLAPPING
  2
AecDbDispPropsStairPlanOverlapping
  3
AecArchBase50|Product Desc: Autodesk Architectural Desktop 2007 |Company: Autodesk,Inc. |WEB Address: www.autodesk.com
 90
      129
280
     0
281
     0
  0
CLASS
  1
AEC_DISP_REP_STAIR_RCP
  2
AecDbDispRepStairRcp
  3
AecArchBase50|Product Desc: Autodesk Architectural Desktop 2007 |Company: Autodesk,Inc. |WEB Address: www.autodesk.com
 90
      129
280
     0
281
     0
  0
CLASS
  1
AEC_DISP_REP_WALL_GRAPH
  2
AecDbDispRepWallGraph
  3
AecArchBase50|Product Desc: Autodesk Architectural Desktop 2007 |Company: Autodesk,Inc. |WEB Address: www.autodesk.com
 90
      129
280
     0
281
     0
  0
CLASS
  1
AEC_DISP_PROPS_WALL_GRAPH
  2
AecDbDispPropsWallGraph
  3
AecArchBase50|Product Desc: Autodesk Architectural Desktop 2007 |Company: Autodesk,Inc. |WEB Address: www.autodesk.com
 90
      129
280
     0
281
     0
  0
CLASS
  1
AEC_DISP_REP_WALL_MODEL
  2
AecDbDispRepWallModel
  3
AecArchBase50|Product Desc: Autodesk Architectural Desktop 2007 |Company: Autodesk,Inc. |WEB Address: www.autodesk.com
 90
      129
280
     0
281
     0
  0
CLASS
  1
AEC_DISP_PROPS_WALL_MODEL
  2
AecDbDispPropsWallModel
  3
AecArchBase50|Product Desc: Autodesk Architectural Desktop 2007 |Company: Autodesk,Inc. |WEB Address: www.autodesk.com
 90
      129
280
     0
281
     0
  0
CLASS
  1
AEC_DISP_REP_WALL_PLAN
  2
AecDbDispRepWallPlan
  3
AecArchBase50|Product Desc: Autodesk Architectural Desktop 2007 |Company: Autodesk,Inc. |WEB Address: www.autodesk.com
 90
      129
280
     0
281
     0
  0
CLASS
  1
AEC_DISP_REP_WALL_RCP
  2
AecDbDispRepWallRcp
  3
AecArchBase50|Product Desc: Autodesk Architectural Desktop 2007 |Company: Autodesk,Inc. |WEB Address: www.autodesk.com
 90
      129
280
     0
281
     0
  0
CLASS
  1
AEC_DISP_REP_WALL_SCHEM
  2
AecDbDispRepWallSchem
  3
AecArchBase50|Product Desc: Autodesk Architectural Desktop 2007 |Company: Autodesk,Inc. |WEB Address: www.autodesk.com
 90
      129
280
     0
281
     0
  0
CLASS
  1
AEC_DISP_PROPS_WALL_SCHEM
  2
AecDbDispPropsWallSchem
  3
AecArchBase50|Product Desc: Autodesk Architectural Desktop 2007 |Company: Autodesk,Inc. |WEB Address: www.autodesk.com
 90
      129
280
     0
281
     0
  0
CLASS
  1
AEC_DISP_REP_WINDOW_ASSEMBLY_MODEL
  2
AecDbDispRepWindowAssemblyModel
  3
AecArchBase50|Product Desc: Autodesk Architectural Desktop 2007 |Company: Autodesk,Inc. |WEB Address: www.autodesk.com
 90
      129
280
     0
281
     0
  0
CLASS
  1
AEC_DISP_REP_WINDOW_ASSEMBLY_PLAN
  2
AecDbDispRepWindowAssemblyPlan
  3
AecArchBase50|Product Desc: Autodesk Architectural Desktop 2007 |Company: Autodesk,Inc. |WEB Address: www.autodesk.com
 90
      129
280
     0
281
     0
  0
CLASS
  1
AEC_DISP_REP_WINDOWASSEMBLY_SILL_PLAN
  2
AecDbDispRepWindowAssemblySillPlan
  3
AecArchBase50|Product Desc: Autodesk Architectural Desktop 2007 |Company: Autodesk,Inc. |WEB Address: www.autodesk.com
 90
      129
280
     0
281
     0
  0
CLASS
  1
AEC_DISP_PROPS_WINDOW_ASSEMBLY_SILL_PLAN
  2
AecDbDispPropsWindowAssemblySillPlan
  3
AecArchBase50|Product Desc: Autodesk Architectural Desktop 2007 |Company: Autodesk,Inc. |WEB Address: www.autodesk.com
 90
      129
280
     0
281
     0
  0
CLASS
  1
AEC_DISP_REP_WINDOW_MODEL
  2
AecDbDispRepWindowModel
  3
AecArchBase50|Product Desc: Autodesk Architectural Desktop 2007 |Company: Autodesk,Inc. |WEB Address: www.autodesk.com
 90
      129
280
     0
281
     0
  0
CLASS
  1
AEC_DISP_PROPS_WINDOW
  2
AecDbDispPropsWindow
  3
AecArchBase50|Product Desc: Autodesk Architectural Desktop 2007 |Company: Autodesk,Inc. |WEB Address: www.autodesk.com
 90
      129
280
     0
281
     0
  0
CLASS
  1
AEC_DISP_REP_WINDOW_ELEV
  2
AecDbDispRepWindowElev
  3
AecArchBase50|Product Desc: Autodesk Architectural Desktop 2007 |Company: Autodesk,Inc. |WEB Address: www.autodesk.com
 90
      129
280
     0
281
     0
  0
CLASS
  1
AEC_DISP_REP_WINDOW_PLAN
  2
AecDbDispRepWindowPlan
  3
AecArchBase50|Product Desc: Autodesk Architectural Desktop 2007 |Company: Autodesk,Inc. |WEB Address: www.autodesk.com
 90
      129
280
     0
281
     0
  0
CLASS
  1
AEC_DISP_REP_WINDOW_NOMINAL
  2
AecDbDispRepWindowNominal
  3
AecArchBase50|Product Desc: Autodesk Architectural Desktop 2007 |Company: Autodesk,Inc. |WEB Address: www.autodesk.com
 90
      129
280
     0
281
     0
  0
CLASS
  1
AEC_DISP_PROPS_WINDOW_NOMINAL
  2
AecDbDispPropsWindowNominal
  3
AecArchBase50|Product Desc: Autodesk Architectural Desktop 2007 |Company: Autodesk,Inc. |WEB Address: www.autodesk.com
 90
      129
280
     0
281
     0
  0
CLASS
  1
AEC_DISP_REP_WINDOW_RCP
  2
AecDbDispRepWindowRcp
  3
AecArchBase50|Product Desc: Autodesk Architectural Desktop 2007 |Company: Autodesk,Inc. |WEB Address: www.autodesk.com
 90
      129
280
     0
281
     0
  0
CLASS
  1
AEC_DISP_REP_WINDOW_SILL_PLAN
  2
AecDbDispRepWindowSillPlan
  3
AecArchBase50|Product Desc: Autodesk Architectural Desktop 2007 |Company: Autodesk,Inc. |WEB Address: www.autodesk.com
 90
      129
280
     0
281
     0
  0
CLASS
  1
AEC_DISP_PROPS_WINDOW_SILL_PLAN
  2
AecDbDispPropsWindowSillPlan
  3
AecArchBase50|Product Desc: Autodesk Architectural Desktop 2007 |Company: Autodesk,Inc. |WEB Address: www.autodesk.com
 90
      129
280
     0
281
     0
  0
CLASS
  1
AEC_DISP_REP_ZONE
  2
AecDbDispRepZone
  3
AecArchBase50|Product Desc: Autodesk Architectural Desktop 2007 |Company: Autodesk,Inc. |WEB Address: www.autodesk.com
 90
      129
280
     0
281
     0
  0
CLASS
  1
AEC_DISP_REP_SET
  2
AecDbDispRepSet
  3
AecBase50|Product Desc: Autodesk Architectural Desktop 2007 |Company: Autodesk,Inc. |WEB Address: www.autodesk.com
 90
      129
280
     0
281
     0
  0
CLASS
  1
AEC_DISP_REP_CONFIG
  2
AecDbDispRepConfig
  3
AecBase50|Product Desc: Autodesk Architectural Desktop 2007 |Company: Autodesk,Inc. |WEB Address: www.autodesk.com
 90
      129
280
     0
281
     0
  0
CLASS
  1
AEC_LAYERKEY_STYLE
  2
AecDbLayerKeyStyle
  3
AecBase50|Product Desc: Autodesk Architectural Desktop 2007 |Company: Autodesk,Inc. |WEB Address: www.autodesk.com
 90
      129
280
     0
281
     0
  0
CLASS
  1
AEC_VARS_ARCHBASE
  2
AecDbVarsArchBase
  3
AecArchBase50|Product Desc: Autodesk Architectural Desktop 2007 |Company: Autodesk,Inc. |WEB Address: www.autodesk.com
 90
      129
280
     0
281
     0
  0
CLASS
  1
AEC_VARS_MUNICH
  2
AecDbVarsMunich
  3
AecArchDACHBase50|Product Desc: Autodesk Architectural Desktop 2007 |Company: Autodesk,Inc. |WEB Address: www.autodesk.com
 90
      129
280
     0
281
     0
  0
CLASS
  1
BINRECORD
  2
AcAecBinRecord
  3
AecBase50|Product Desc: Autodesk Architectural Desktop 2007 |Company: Autodesk,Inc. |WEB Address: www.autodesk.com
 90
      129
280
     0
281
     0
  0
CLASS
  1
CELLSTYLEMAP
  2
AcDbCellStyleMap
  3
ObjectDBX Classes
 90
    33920
280
     1
281
     0
  0
CLASS
  1
SORTENTSTABLE
  2
AcDbSortentsTable
  3
ObjectDBX Classes
 90
        0
280
     0
281
     0
  0
CLASS
  1
SOLID_BACKGROUND
  2
AcDbSolidBackground
  3
SCENEOE
 90
    36863
280
     0
281
     0
  0
CLASS
  1
ACSH_EXTRUSION_CLASS
  2
AcDbShExtrusion
  3
ObjectDBX Classes
 90
    33921
280
     0
281
     0
  0
CLASS
  1
ACAD_EVALUATION_GRAPH
  2
AcDbEvalGraph
  3
ObjectDBX Classes
 90
    33921
280
     0
281
     0
  0
CLASS
  1
ACSH_HISTORY_CLASS
  2
AcDbShHistory
  3
ObjectDBX Classes
 90
    33921
280
     0
281
     0
  0
CLASS
  1
EXTRUDEDSURFACE
  2
AcDbExtrudedSurface
  3
ObjectDBX Classes
 90
    36861
280
     0
281
     1
  0
CLASS
  1
ACDBPERSSUBENTMANAGER
  2
AcDbPersSubentManager
  3
AcDbPersSubentManager
 90
     1024
280
     0
281
     0
  0
CLASS
  1
ACSH_BOOLEAN_CLASS
  2
AcDbShBoolean
  3
ObjectDBX Classes
 90
    33921
280
     0
281
     0
  0
CLASS
  1
ACAECUSTOBJ
  2
AcAeEditorObj
  3
AcAeEditorObj
 90
    33792
280
     0
281
     0
  0
CLASS
  1
ACDB_DYNAMICBLOCKPURGEPREVENTER_VERSION
  2
AcDbDynamicBlockPurgePreventer
  3
ObjectDBX Classes
 90
    33921
280
     0
281
     0
  0
CLASS
  1
ACSH_BOX_CLASS
  2
AcDbShBox
  3
ObjectDBX Classes
 90
    33921
280
     0
281
     0
  0
CLASS
  1
SUN
  2
AcDbSun
  3
SCENEOE
 90
     1024
280
     0
281
     0
  0
CLASS
  1
ACDB_BLOCKREPRESENTATION_DATA
  2
AcDbBlockRepresentationData
  3
ObjectDBX Classes
 90
    33921
280
     0
281
     0
  0
CLASS
  1
SURFACE
  2
AcDbSurface
  3
ObjectDBX Classes
 90
    36863
280
     0
281
     1
  0
CLASS
  1
ACSH_CYLINDER_CLASS
  2
AcDbShCylinder
  3
ObjectDBX Classes
 90
    33921
280
     0
281
     0
  0
ENDSEC
  0
SECTION
  2
TABLES
  0
TABLE
  2
VPORT
  5
8
102
{ACAD_XDICTIONARY
360
56B
102
}
330
0
100
AcDbSymbolTable
 70
     1
  0
VPORT
  5
94
330
8
100
AcDbSymbolTableRecord
100
AcDbViewportTableRecord
  2
*Active
 70
     0
 10
0.0
 20
0.0
 11
1.0
 21
1.0
 12
29.18980438788617
 22
59.51778292590042
 13
0.0
 23
0.0
 14
0.5
 24
0.5
 15
0.5
 25
0.5
 16
0.0
 26
0.0
 36
1.0
 17
0.8098893197230152
 27
0.4831336246287269
 37
-0.0492661864433649
 40
120.9491796196607
 41
1.572178477690288
 42
50.0
 43
0.0
 44
0.0
 50
0.0
 51
0.0
 71
     0
 72
  1000
 73
     1
 74
     3
 75
     0
 76
     0
 77
     0
 78
     0
281
     0
 65
     1
110
0.0
120
0.0
130
0.0
111
1.0
121
0.0
131
0.0
112
0.0
122
1.0
132
0.0
 79
     0
146
0.0
  0
ENDTAB
  0
TABLE
  2
LTYPE
  5
5
330
0
100
AcDbSymbolTable
 70
     1
  0
LTYPE
  5
14
330
5
100
AcDbSymbolTableRecord
100
AcDbLinetypeTableRecord
  2
ByBlock
 70
     0
  3

 72
    65
 73
     0
 40
0.0
  0
LTYPE
  5
15
330
5
100
AcDbSymbolTableRecord
100
AcDbLinetypeTableRecord
  2
ByLayer
 70
     0
  3

 72
    65
 73
     0
 40
0.0
  0
LTYPE
  5
16
330
5
100
AcDbSymbolTableRecord
100
AcDbLinetypeTableRecord
  2
Continuous
 70
     0
  3
Solid line
 72
    65
 73
     0
 40
0.0
  0
ENDTAB
  0
TABLE
  2
LAYER
  5
2
102
{ACAD_XDICTIONARY
360
1F7
102
}
330
0
100
AcDbSymbolTable
 70
     4
  0
LAYER
  5
10
330
2
100
AcDbSymbolTableRecord
100
AcDbLayerTableRecord
  2
0
 70
     0
 62
     7
  6
Continuous
370
    -3
390
F
  0
LAYER
  5
1F2
330
2
100
AcDbSymbolTableRecord
100
AcDbLayerTableRecord
  2
DEFPOINTS
 70
     0
 62
     7
  6
Continuous
290
     0
370
    -3
390
1F6
  0
LAYER
  5
E49
330
2
100
AcDbSymbolTableRecord
100
AcDbLayerTableRecord
  2
DEPA
 70
     0
 62
    31
  6
Continuous
370
    -3
390
F
1001
AcAecLayerStandard
1000

1000

  0
ENDTAB
  0
TABLE
  2
STYLE
  5
3
330
0
100
AcDbSymbolTable
 70
     2
  0
STYLE
  5
11
330
3
100
AcDbSymbolTableRecord
100
AcDbTextStyleTableRecord
  2
Standard
 70
     0
 40
0.0
 41
1.0
 50
0.0
 71
     0
 42
0.2
  3
txt
  4

  0
ENDTAB
  0
TABLE
  2
VIEW
  5
6
330
0
100
AcDbSymbolTable
 70
     0
  0
ENDTAB
  0
TABLE
  2
UCS
  5
7
330
0
100
AcDbSymbolTable
 70
     0
  0
ENDTAB
  0
TABLE
  2
APPID
  5
9
330
0
100
AcDbSymbolTable
 70
    16
  0
APPID
  5
12
330
9
100
AcDbSymbolTableRecord
100
AcDbRegAppTableRecord
  2
ACAD
 70
     0
  0
APPID
  5
BC
330
9
100
AcDbSymbolTableRecord
100
AcDbRegAppTableRecord
  2
ACAD_EXEMPT_FROM_CAD_STANDARDS
 70
     0
  0
APPID
  5
BD
330
9
100
AcDbSymbolTableRecord
100
AcDbRegAppTableRecord
  2
ACAD_DSTYLE_DIM_LINETYPE
 70
     0
  0
APPID
  5
BE
330
9
100
AcDbSymbolTableRecord
100
AcDbRegAppTableRecord
  2
ACAD_DSTYLE_DIM_EXT1_LINETYPE
 70
     0
  0
APPID
  5
BF
330
9
100
AcDbSymbolTableRecord
100
AcDbRegAppTableRecord
  2
ACAD_DSTYLE_DIM_EXT2_LINETYPE
 70
     0
  0
APPID
  5
1F3
330
9
100
AcDbSymbolTableRecord
100
AcDbRegAppTableRecord
  2
AECBASE
 70
     0
  0
APPID
  5
1F4
330
9
100
AcDbSymbolTableRecord
100
AcDbRegAppTableRecord
  2
ACAD_PSEXT
 70
     0
  0
APPID
  5
1F5
330
9
100
AcDbSymbolTableRecord
100
AcDbRegAppTableRecord
  2
AEC_OBJVER_INFO
 70
     0
  0
APPID
  5
272
330
9
100
AcDbSymbolTableRecord
100
AcDbRegAppTableRecord
  2
AcAecLayerStandard
 70
     0
  0
APPID
  5
273
330
9
100
AcDbSymbolTableRecord
100
AcDbRegAppTableRecord
  2
AcDbDynamicBlockGUID
 70
     0
  0
APPID
  5
274
330
9
100
AcDbSymbolTableRecord
100
AcDbRegAppTableRecord
  2
AcDbBlockRepETag
 70
     0
  0
APPID
  5
57F
330
9
100
AcDbSymbolTableRecord
100
AcDbRegAppTableRecord
  2
ACAD_DSTYLE_DIMEXT_ENABLED
 70
     0
  0
APPID
  5
580
330
9
100
AcDbSymbolTableRecord
100
AcDbRegAppTableRecord
  2
ACAD_DSTYLE_DIMEXT_LENGTH
 70
     0
  0
APPID
  5
FE2
330
9
100
AcDbSymbolTableRecord
100
AcDbRegAppTableRecord
  2
ACAUTHENVIRON
 70
     0
  0
APPID
  5
114A
330
9
100
AcDbSymbolTableRecord
100
AcDbRegAppTableRecord
  2
AcDbDynamicBlockTrueName
 70
     0
  0
APPID
  5
7C09
330
9
100
AcDbSymbolTableRecord
100
AcDbRegAppTableRecord
  2
AcDbBlockRepBTag
 70
     0
  0
ENDTAB
  0
TABLE
  2
DIMSTYLE
  5
A
330
0
100
AcDbSymbolTable
 70
     2
100
AcDbDimStyleTable
 71
     1
340
27
  0
DIMSTYLE
105
27
330
A
100
AcDbSymbolTableRecord
100
AcDbDimStyleTableRecord
  2
Standard
 70
     0
340
11
  0
ENDTAB
  0
TABLE
  2
BLOCK_RECORD
  5
1
330
0
100
AcDbSymbolTable
 70
     5
  0
BLOCK_RECORD
  5
1F
102
{ACAD_XDICTIONARY
360
2DE
102
}
330
1
100
AcDbSymbolTableRecord
100
AcDbBlockTableRecord
  2
*Model_Space
340
22
  0
BLOCK_RECORD
  5
58
330
1
100
AcDbSymbolTableRecord
100
AcDbBlockTableRecord
  2
*Paper_Space
340
59
  0
BLOCK_RECORD
  5
5D
330
1
100
AcDbSymbolTableRecord
100
AcDbBlockTableRecord
  2
*Paper_Space0
340
5E
  0
BLOCK_RECORD
  5
1293B
102
{ACAD_XDICTIONARY
360
1293C
102
}
330
1
100
AcDbSymbolTableRecord
100
AcDbBlockTableRecord
  2
AB_08
340
0
310
2800000020000000200000000100080000000000000400000000000000000000000000000000000000000000000080000080000000808000800000008000800080800000C0C0C000C0DCC000F0CAA6000020400000206000002080000020A0000020C0000020E00000400000004020000040400000406000004080000040A0
310
000040C0000040E00000600000006020000060400000606000006080000060A0000060C0000060E00000800000008020000080400000806000008080000080A0000080C0000080E00000A0000000A0200000A0400000A0600000A0800000A0A00000A0C00000A0E00000C0000000C0200000C0400000C0600000C0800000C0
310
A00000C0C00000C0E00000E0000000E0200000E0400000E0600000E0800000E0A00000E0C00000E0E00040000000400020004000400040006000400080004000A0004000C0004000E00040200000402020004020400040206000402080004020A0004020C0004020E000404000004040200040404000404060004040800040
310
40A0004040C0004040E00040600000406020004060400040606000406080004060A0004060C0004060E00040800000408020004080400040806000408080004080A0004080C0004080E00040A0000040A0200040A0400040A0600040A0800040A0A00040A0C00040A0E00040C0000040C0200040C0400040C0600040C08000
310
40C0A00040C0C00040C0E00040E0000040E0200040E0400040E0600040E0800040E0A00040E0C00040E0E00080000000800020008000400080006000800080008000A0008000C0008000E00080200000802020008020400080206000802080008020A0008020C0008020E00080400000804020008040400080406000804080
310
008040A0008040C0008040E00080600000806020008060400080606000806080008060A0008060C0008060E00080800000808020008080400080806000808080008080A0008080C0008080E00080A0000080A0200080A0400080A0600080A0800080A0A00080A0C00080A0E00080C0000080C0200080C0400080C0600080C0
310
800080C0A00080C0C00080C0E00080E0000080E0200080E0400080E0600080E0800080E0A00080E0C00080E0E000C0000000C0002000C0004000C0006000C0008000C000A000C000C000C000E000C0200000C0202000C0204000C0206000C0208000C020A000C020C000C020E000C0400000C0402000C0404000C0406000C0
310
408000C040A000C040C000C040E000C0600000C0602000C0604000C0606000C0608000C060A000C060C000C060E000C0800000C0802000C0804000C0806000C0808000C080A000C080C000C080E000C0A00000C0A02000C0A04000C0A06000C0A08000C0A0A000C0A0C000C0A0E000C0C00000C0C02000C0C04000C0C06000
310
C0C08000C0C0A000F0FBFF00A4A0A000808080000000FF0000FF000000FFFF00FF000000FF00FF00FFFF0000FFFFFF0000000000000000000000000000000000000000000000000000000000000000000000000000000000FFFFFFFFFFFFFFFFFFFFFFFFFFFFFFFF00000000000000000000000000000000FFFFFFFFFFFFFF
310
00FF00FFFFFF0000FF00000000000000000000000000000000FFFFFFFFFFFFFF00FFFFFFFFFFFFFFFF00000000000000000000000000000000FFFFFFFFFFFFFF00FFFFFFFFFFFFFFFF00000000000000000000000000000000FFFF00FFFFFFFF0000FF000000FFFFFF00000000000000000000000000000000FFFFFFFF00FF
310
FFFFFFFFFFFFFFFFFFFF00000000000000000000000000000000FFFFFFFF00FFFFFFFFFFFFFFFFFFFFFF00000000000000000000000000000000FFFFFFFFFFFFFFFF00FFFFFFFFFFFFFF00000000000000000000000000000000FFFFFFFFFFFFFFFFFFFF00FF00FF00FF00000000000000000000000000000000FFFFFFFFFF
310
FFFFFFFFFFFFFFFFFFFFFF00000000000000000000000000000000FFFFFFFFFFFFFFFFFFFFFFFFFFFFFFFF00000000000000000000000000000000FFFFFFFFFFFFFF00FF00FFFFFF0000FF00000000000000000000000000000000FFFFFFFFFFFFFF00FFFFFFFFFFFFFFFF00000000000000000000000000000000FFFFFFFF
310
FFFFFF00FFFFFFFFFFFFFFFF00000000000000000000000000000000FFFFFFFF00FFFFFFFFFFFFFFFFFFFFFF00000000000000000000000000000000FFFFFFFF00FFFFFFFFFFFFFFFFFFFFFF00000000000000000000000000000000FFFFFFFFFFFFFFFF00FFFFFFFFFFFFFF00000000000000000000000000000000FFFF00
310
FFFFFFFFFFFFFF00FF00FF00FF00000000000000000000000000000000FFFFFFFFFFFFFFFFFFFFFFFFFFFFFFFF00000000000000000000000000000000FFFFFFFFFFFFFFFFFFFFFFFFFFFFFFFF00000000000000000000000000000000FFFFFFFFFFFFFF00FF00FFFFFF0000FF00000000000000000000000000000000FFFF
310
FFFFFFFFFF00FFFFFFFFFFFFFFFF00000000000000000000000000000000FFFFFFFFFFFFFF00FFFFFFFFFFFFFFFF00000000000000000000000000000000FFFFFFFF00FF00FF00FFFFFFFFFFFFFF00000000000000000000000000000000FFFFFFFF00FFFFFFFFFFFFFFFFFFFFFF00000000000000000000000000000000FF
310
FFFFFF00FFFFFFFFFFFFFFFFFFFFFF00000000000000000000000000000000FFFF00FFFF00FFFFFFFF00FFFFFFFFFF00000000000000000000000000000000FFFFFFFFFFFFFFFFFFFFFFFFFFFFFFFF00000000000000000000000000000000FFFFFFFFFFFFFFFFFFFFFFFFFFFFFFFF00000000000000000000000000000000
310
FFFFFFFFFFFFFFFFFFFFFFFFFFFFFFFF00000000000000000000000000000000000000000000000000000000000000000000000000000000
102
{BLKREFS
331
12A34
331
12A3C
102
}
1001
AcDbDynamicBlockGUID
1000
{2B29EC9C-6D09-47BD-B824-FE9DFF891E03}
1001
AcDbBlockRepETag
1070
     1
1071
      241
1001
ACAD
1000
DesignCenter Data
1002
{
1070
     1
1070
     6
1002
}
  0
ENDTAB
  0
ENDSEC
  0
SECTION
  2
BLOCKS
  0
BLOCK
  5
20
330
1F
100
AcDbEntity
  8
0
100
AcDbBlockBegin
  2
*Model_Space
 70
     0
 10
0.0
 20
0.0
 30
0.0
  3
*Model_Space
  1

  0
ENDBLK
  5
21
330
1F
100
AcDbEntity
  8
0
100
AcDbBlockEnd
  0
BLOCK
  5
5A
330
58
100
AcDbEntity
 67
     1
  8
0
100
AcDbBlockBegin
  2
*Paper_Space
 70
     0
 10
0.0
 20
0.0
 30
0.0
  3
*Paper_Space
  1

  0
ENDBLK
  5
5B
330
58
100
AcDbEntity
 67
     1
  8
0
100
AcDbBlockEnd
  0
BLOCK
  5
5F
330
5D
100
AcDbEntity
 67
     1
  8
0
100
AcDbBlockBegin
  2
*Paper_Space0
 70
     0
 10
0.0
 20
0.0
 30
0.0
  3
*Paper_Space0
  1

  0
ENDBLK
  5
60
330
5D
100
AcDbEntity
 67
     1
  8
0
100
AcDbBlockEnd
  0
BLOCK
  5
1293D
330
1293B
100
AcDbEntity
  8
0
 62
     1
100
AcDbBlockBegin
  2
AB_08
 70
     0
 10
0.0
 20
0.0
 30
0.0
  3
AB_08
  1

  0
LWPOLYLINE
  5
1293E
330
1293B
100
AcDbEntity
  8
0
370
    -2
100
AcDbPolyline
 90
        4
 70
     1
 43
0.0
 10
-0.3000000000000007
 20
-1.199999999999999
 10
0.3000000000000007
 20
-1.199999999999999
 10
0.3000000000000007
 20
0.0
 10
-0.3000000000000007
 20
0.0
1001
AcDbBlockRepETag
1070
     1
1071
        0
1005
1293E
  0
LINE
  5
1293F
330
1293B
100
AcDbEntity
  8
0
370
    -2
100
AcDbLine
 10
-0.2654144964333476
 20
-1.108410468444894
 30
0.0
 11
-0.2442012929977544
 21
-1.087197265009297
 31
0.0
1001
AcDbBlockRepETag
1070
     1
1071
        1
1005
1293F
  0
LWPOLYLINE
  5
12940
330
1293B
100
AcDbEntity
  8
0
370
    -2
100
AcDbPolyline
 90
        3
 70
     0
 43
0.0
 10
-0.2654144964333476
 20
-1.065984061573701
 10
-0.2442012929977544
 20
-1.087197265009297
 10
-0.1942012929977572
 20
-1.087197265009297
1001
AcDbBlockRepETag
1070
     1
1071
        2
1005
12940
  0
LINE
  5
12941
330
1293B
100
AcDbEntity
  8
0
370
    -2
100
AcDbLine
 10
-0.2654144964333476
 20
-1.150836875316088
 30
0.0
 11
-0.2442012929977544
 21
-1.129623671880491
 31
0.0
1001
AcDbBlockRepETag
1070
     1
1071
        3
1005
12941
  0
LWPOLYLINE
  5
12942
330
1293B
100
AcDbEntity
  8
0
370
    -2
100
AcDbPolyline
 90
        3
 70
     0
 43
0.0
 10
-0.2654144964333476
 20
-1.108410468444894
 10
-0.2442012929977544
 20
-1.129623671880491
 10
-0.1942012929977572
 20
-1.129623671880491
1001
AcDbBlockRepETag
1070
     1
1071
        4
1005
12942
  0
LINE
  5
12943
330
1293B
100
AcDbEntity
  8
0
370
    -2
100
AcDbLine
 10
-0.1429880895621629
 20
-1.108410468444894
 30
0.0
 11
-0.1642012929977561
 21
-1.087197265009297
 31
0.0
1001
AcDbBlockRepETag
1070
     1
1071
        5
1005
12943
  0
LWPOLYLINE
  5
12944
330
1293B
100
AcDbEntity
  8
0
370
    -2
100
AcDbPolyline
 90
        3
 70
     0
 43
0.0
 10
-0.1429880895621629
 20
-1.065984061573701
 10
-0.1642012929977561
 20
-1.087197265009297
 10
-0.1942012929977572
 20
-1.087197265009297
1001
AcDbBlockRepETag
1070
     1
1071
        6
1005
12944
  0
LINE
  5
12945
330
1293B
100
AcDbEntity
  8
0
370
    -2
100
AcDbLine
 10
-0.2154144964333504
 20
-1.150836875316088
 30
0.0
 11
-0.1942012929977572
 21
-1.129623671880491
 31
0.0
1001
AcDbBlockRepETag
1070
     1
1071
        7
1005
12945
  0
LWPOLYLINE
  5
12946
330
1293B
100
AcDbEntity
  8
0
370
    -2
100
AcDbPolyline
 90
        3
 70
     0
 43
0.0
 10
-0.2154144964333504
 20
-1.108410468444894
 10
-0.1942012929977572
 20
-1.129623671880491
 10
-0.1117748861265646
 20
-1.129623671880491
1001
AcDbBlockRepETag
1070
     1
1071
        8
1005
12946
  0
LINE
  5
12947
330
1293B
100
AcDbEntity
  8
0
370
    -2
100
AcDbLine
 10
-0.1329880895621649
 20
-1.065984061573701
 30
0.0
 11
-0.1117748861265646
 21
-1.087197265009294
 31
0.0
1001
AcDbBlockRepETag
1070
     1
1071
        9
1005
12947
  0
LWPOLYLINE
  5
12948
330
1293B
100
AcDbEntity
  8
0
370
    -2
100
AcDbPolyline
 90
        3
 70
     0
 43
0.0
 10
-0.0905616826909714
 20
-1.065984061573701
 10
-0.1117748861265646
 20
-1.087197265009294
 10
-0.1117748861265646
 20
-1.187197265009295
1001
AcDbBlockRepETag
1070
     1
1071
       10
1005
12948
  0
LINE
  5
12949
330
1293B
100
AcDbEntity
  8
0
370
    -2
100
AcDbLine
 10
-0.0905616826909714
 20
-1.065984061573701
 30
0.0
 11
-0.0693484792553711
 21
-1.087197265009294
 31
0.0
1001
AcDbBlockRepETag
1070
     1
1071
       11
1005
12949
  0
LWPOLYLINE
  5
1294A
330
1293B
100
AcDbEntity
  8
0
370
    -2
100
AcDbPolyline
 90
        3
 70
     0
 43
0.0
 10
-0.048135275819778
 20
-1.065984061573701
 10
-0.0693484792553711
 20
-1.087197265009294
 10
-0.0693484792553711
 20
-1.187197265009295
1001
AcDbBlockRepETag
1070
     1
1071
       12
1005
1294A
  0
LINE
  5
1294B
330
1293B
100
AcDbEntity
  8
0
370
    -2
100
AcDbLine
 10
-0.2654144964333476
 20
-1.193263282187281
 30
0.0
 11
-0.2442012929977544
 21
-1.172050078751684
 31
0.0
1001
AcDbBlockRepETag
1070
     1
1071
       13
1005
1294B
  0
LWPOLYLINE
  5
1294C
330
1293B
100
AcDbEntity
  8
0
370
    -2
100
AcDbPolyline
 90
        3
 70
     0
 43
0.0
 10
-0.2654144964333476
 20
-1.150836875316088
 10
-0.2442012929977544
 20
-1.172050078751684
 10
-0.1117748861265646
 20
-1.172050078751684
1001
AcDbBlockRepETag
1070
     1
1071
       14
1005
1294C
  0
LINE
  5
1294D
330
1293B
100
AcDbEntity
  8
0
370
    -2
100
AcDbLine
 10
0.0190917908320323
 20
-1.114717946997355
 30
0.0
 11
0.0403049942676255
 21
-1.093504743561759
 31
0.0
1001
AcDbBlockRepETag
1070
     1
1071
       15
1005
1294D
  0
LWPOLYLINE
  5
1294E
330
1293B
100
AcDbEntity
  8
0
370
    -2
100
AcDbPolyline
 90
        3
 70
     0
 43
0.0
 10
0.0190917908320323
 20
-1.072291540126162
 10
0.0403049942676255
 20
-1.093504743561759
 10
0.1103049942676257
 20
-1.093504743561759
1001
AcDbBlockRepETag
1070
     1
1071
       16
1005
1294E
  0
LINE
  5
1294F
330
1293B
100
AcDbEntity
  8
0
370
    -2
100
AcDbLine
 10
0.0190917908320323
 20
-1.157144353868549
 30
0.0
 11
0.0403049942676255
 21
-1.135931150432952
 31
0.0
1001
AcDbBlockRepETag
1070
     1
1071
       17
1005
1294F
  0
LWPOLYLINE
  5
12950
330
1293B
100
AcDbEntity
  8
0
370
    -2
100
AcDbPolyline
 90
        3
 70
     0
 43
0.0
 10
0.0190917908320323
 20
-1.114717946997355
 10
0.0403049942676255
 20
-1.135931150432952
 10
0.1103049942676257
 20
-1.135931150432952
1001
AcDbBlockRepETag
1070
     1
1071
       18
1005
12950
  0
LINE
  5
12951
330
1293B
100
AcDbEntity
  8
0
370
    -2
100
AcDbLine
 10
0.089091790832029
 20
-1.072291540126165
 30
0.0
 11
0.1103049942676257
 21
-1.093504743561759
 31
0.0
1001
AcDbBlockRepETag
1070
     1
1071
       19
1005
12951
  0
LWPOLYLINE
  5
12952
330
1293B
100
AcDbEntity
  8
0
370
    -2
100
AcDbPolyline
 90
        3
 70
     0
 43
0.0
 10
0.1315181977032225
 20
-1.072291540126165
 10
0.1103049942676257
 20
-1.093504743561759
 10
0.1103049942676257
 20
-1.163504743561759
1001
AcDbBlockRepETag
1070
     1
1071
       20
1005
12952
  0
LINE
  5
12953
330
1293B
100
AcDbEntity
  8
0
370
    -2
100
AcDbLine
 10
0.1315181977032225
 20
-1.072291540126165
 30
0.0
 11
0.1527314011388192
 21
-1.093504743561759
 31
0.0
1001
AcDbBlockRepETag
1070
     1
1071
       21
1005
12953
  0
LWPOLYLINE
  5
12954
330
1293B
100
AcDbEntity
  8
0
370
    -2
100
AcDbPolyline
 90
        3
 70
     0
 43
0.0
 10
0.173944604574416
 20
-1.072291540126165
 10
0.1527314011388192
 20
-1.093504743561759
 10
0.1527314011388192
 20
-1.163504743561759
1001
AcDbBlockRepETag
1070
     1
1071
       22
1005
12954
  0
LINE
  5
12955
330
1293B
100
AcDbEntity
  8
0
370
    -2
100
AcDbLine
 10
0.173944604574416
 20
-1.072291540126165
 30
0.0
 11
0.1951578080100127
 21
-1.093504743561759
 31
0.0
1001
AcDbBlockRepETag
1070
     1
1071
       23
1005
12955
  0
LWPOLYLINE
  5
12956
330
1293B
100
AcDbEntity
  8
0
370
    -2
100
AcDbPolyline
 90
        3
 70
     0
 43
0.0
 10
0.2163710114456094
 20
-1.072291540126165
 10
0.1951578080100127
 20
-1.093504743561759
 10
0.1951578080100127
 20
-1.163504743561759
1001
AcDbBlockRepETag
1070
     1
1071
       24
1005
12956
  0
LWPOLYLINE
  5
12957
330
1293B
100
AcDbEntity
  8
0
370
    -2
100
AcDbPolyline
 90
        4
 70
     0
 43
0.0
 10
0.2575842148812057
 20
-1.093504743561759
 10
0.236371011445609
 20
-1.114717946997352
 10
0.236371011445609
 20
-1.114717946997352
 10
0.2151578080100123
 20
-1.093504743561759
1001
AcDbBlockRepETag
1070
     1
1071
       25
1005
12957
  0
LWPOLYLINE
  5
12958
330
1293B
100
AcDbEntity
  8
0
370
    -2
100
AcDbPolyline
 90
        4
 70
     0
 43
0.0
 10
0.2575842148812057
 20
-1.117504743561759
 10
0.236371011445609
 20
-1.138717946997353
 10
0.236371011445609
 20
-1.138717946997353
 10
0.2151578080100123
 20
-1.117504743561759
1001
AcDbBlockRepETag
1070
     1
1071
       26
1005
12958
  0
LINE
  5
12959
330
1293B
100
AcDbEntity
  8
0
370
    -2
100
AcDbLine
 10
-0.2788649129292828
 20
-0.9505661471592468
 30
0.0
 11
-0.2576517094936896
 21
-0.92935294372365
 31
0.0
1001
AcDbBlockRepETag
1070
     1
1071
       27
1005
12959
  0
LWPOLYLINE
  5
1295A
330
1293B
100
AcDbEntity
  8
0
370
    -2
100
AcDbPolyline
 90
        3
 70
     0
 43
0.0
 10
-0.2788649129292828
 20
-0.9081397402880533
 10
-0.2576517094936896
 20
-0.92935294372365
 10
-0.1876517094936894
 20
-0.92935294372365
1001
AcDbBlockRepETag
1070
     1
1071
       28
1005
1295A
  0
LINE
  5
1295B
330
1293B
100
AcDbEntity
  8
0
370
    -2
100
AcDbLine
 10
-0.2788649129292828
 20
-0.9929925540304402
 30
0.0
 11
-0.2576517094936896
 21
-0.9717793505948435
 31
0.0
1001
AcDbBlockRepETag
1070
     1
1071
       29
1005
1295B
  0
LWPOLYLINE
  5
1295C
330
1293B
100
AcDbEntity
  8
0
370
    -2
100
AcDbPolyline
 90
        3
 70
     0
 43
0.0
 10
-0.2788649129292828
 20
-0.9505661471592468
 10
-0.2576517094936896
 20
-0.9717793505948435
 10
-0.1876517094936894
 20
-0.9717793505948435
1001
AcDbBlockRepETag
1070
     1
1071
       30
1005
1295C
  0
LINE
  5
1295D
330
1293B
100
AcDbEntity
  8
0
370
    -2
100
AcDbLine
 10
-0.2788649129292828
 20
-1.035418960901633
 30
0.0
 11
-0.2576517094936896
 21
-1.014205757466037
 31
0.0
1001
AcDbBlockRepETag
1070
     1
1071
       31
1005
1295D
  0
LWPOLYLINE
  5
1295E
330
1293B
100
AcDbEntity
  8
0
370
    -2
100
AcDbPolyline
 90
        3
 70
     0
 43
0.0
 10
-0.2788649129292828
 20
-0.9929925540304402
 10
-0.2576517094936896
 20
-1.014205757466037
 10
-0.1876517094936894
 20
-1.014205757466037
1001
AcDbBlockRepETag
1070
     1
1071
       32
1005
1295E
  0
LINE
  5
1295F
330
1293B
100
AcDbEntity
  8
0
370
    -2
100
AcDbLine
 10
-0.2088649129292861
 20
-0.9081397402880568
 30
0.0
 11
-0.1876517094936894
 21
-0.92935294372365
 31
0.0
1001
AcDbBlockRepETag
1070
     1
1071
       33
1005
1295F
  0
LWPOLYLINE
  5
12960
330
1293B
100
AcDbEntity
  8
0
370
    -2
100
AcDbPolyline
 90
        3
 70
     0
 43
0.0
 10
-0.1664385060580926
 20
-0.9081397402880568
 10
-0.1876517094936894
 20
-0.92935294372365
 10
-0.1876517094936894
 20
-1.029352943723651
1001
AcDbBlockRepETag
1070
     1
1071
       34
1005
12960
  0
LINE
  5
12961
330
1293B
100
AcDbEntity
  8
0
370
    -2
100
AcDbLine
 10
-0.0878930870491281
 20
-0.9713982930825686
 30
0.0
 11
-0.066679883613535
 21
-0.9501850896469719
 31
0.0
1001
AcDbBlockRepETag
1070
     1
1071
       35
1005
12961
  0
LWPOLYLINE
  5
12962
330
1293B
100
AcDbEntity
  8
0
370
    -2
100
AcDbPolyline
 90
        3
 70
     0
 43
0.0
 10
-0.0878930870491281
 20
-0.9289718862113751
 10
-0.066679883613535
 20
-0.9501850896469719
 10
0.0033201163864653
 20
-0.9501850896469719
1001
AcDbBlockRepETag
1070
     1
1071
       36
1005
12962
  0
LINE
  5
12963
330
1293B
100
AcDbEntity
  8
0
370
    -2
100
AcDbLine
 10
-0.0878930870491281
 20
-1.013824699953762
 30
0.0
 11
-0.066679883613535
 21
-0.9926114965181653
 31
0.0
1001
AcDbBlockRepETag
1070
     1
1071
       37
1005
12963
  0
LWPOLYLINE
  5
12964
330
1293B
100
AcDbEntity
  8
0
370
    -2
100
AcDbPolyline
 90
        3
 70
     0
 43
0.0
 10
-0.0878930870491281
 20
-0.9713982930825686
 10
-0.066679883613535
 20
-0.9926114965181653
 10
0.0033201163864653
 20
-0.9926114965181653
1001
AcDbBlockRepETag
1070
     1
1071
       38
1005
12964
  0
LINE
  5
12965
330
1293B
100
AcDbEntity
  8
0
370
    -2
100
AcDbLine
 10
-0.0442564195058282
 20
-0.9289718862113787
 30
0.0
 11
-0.0230432160702314
 21
-0.9501850896469719
 31
0.0
1001
AcDbBlockRepETag
1070
     1
1071
       39
1005
12965
  0
LWPOLYLINE
  5
12966
330
1293B
100
AcDbEntity
  8
0
370
    -2
100
AcDbPolyline
 90
        3
 70
     0
 43
0.0
 10
-0.0018300126346347
 20
-0.9289718862113787
 10
-0.0230432160702314
 20
-0.9501850896469719
 10
-0.0230432160702314
 20
-1.022186853689532
1001
AcDbBlockRepETag
1070
     1
1071
       40
1005
12966
  0
LINE
  5
12967
330
1293B
100
AcDbEntity
  8
0
370
    -2
100
AcDbLine
 10
0.0664322805877511
 20
-0.9530738341566618
 30
0.0
 11
0.0876454840233443
 21
-0.931860630721065
 31
0.0
1001
AcDbBlockRepETag
1070
     1
1071
       41
1005
12967
  0
LWPOLYLINE
  5
12968
330
1293B
100
AcDbEntity
  8
0
370
    -2
100
AcDbPolyline
 90
        3
 70
     0
 43
0.0
 10
0.0664322805877511
 20
-0.9106474272854683
 10
0.0876454840233443
 20
-0.931860630721065
 10
0.1376454840233414
 20
-0.931860630721065
1001
AcDbBlockRepETag
1070
     1
1071
       42
1005
12968
  0
LINE
  5
12969
330
1293B
100
AcDbEntity
  8
0
370
    -2
100
AcDbLine
 10
0.0664322805877511
 20
-0.9955002410278552
 30
0.0
 11
0.0876454840233443
 21
-0.9742870375922585
 31
0.0
1001
AcDbBlockRepETag
1070
     1
1071
       43
1005
12969
  0
LWPOLYLINE
  5
1296A
330
1293B
100
AcDbEntity
  8
0
370
    -2
100
AcDbPolyline
 90
        3
 70
     0
 43
0.0
 10
0.0664322805877511
 20
-0.9530738341566618
 10
0.0876454840233443
 20
-0.9742870375922585
 10
0.1376454840233414
 20
-0.9742870375922585
1001
AcDbBlockRepETag
1070
     1
1071
       44
1005
1296A
  0
LINE
  5
1296B
330
1293B
100
AcDbEntity
  8
0
370
    -2
100
AcDbLine
 10
0.1888586874589357
 20
-0.9530738341566618
 30
0.0
 11
0.1676454840233426
 21
-0.931860630721065
 31
0.0
1001
AcDbBlockRepETag
1070
     1
1071
       45
1005
1296B
  0
LWPOLYLINE
  5
1296C
330
1293B
100
AcDbEntity
  8
0
370
    -2
100
AcDbPolyline
 90
        3
 70
     0
 43
0.0
 10
0.1888586874589357
 20
-0.9106474272854683
 10
0.1676454840233426
 20
-0.931860630721065
 10
0.1376454840233414
 20
-0.931860630721065
1001
AcDbBlockRepETag
1070
     1
1071
       46
1005
1296C
  0
LINE
  5
1296D
330
1293B
100
AcDbEntity
  8
0
370
    -2
100
AcDbLine
 10
0.1164322805877482
 20
-0.9955002410278552
 30
0.0
 11
0.1376454840233414
 21
-0.9742870375922585
 31
0.0
1001
AcDbBlockRepETag
1070
     1
1071
       47
1005
1296D
  0
LWPOLYLINE
  5
1296E
330
1293B
100
AcDbEntity
  8
0
370
    -2
100
AcDbPolyline
 90
        3
 70
     0
 43
0.0
 10
0.1164322805877482
 20
-0.9530738341566618
 10
0.1376454840233414
 20
-0.9742870375922585
 10
0.220071890894534
 20
-0.9742870375922585
1001
AcDbBlockRepETag
1070
     1
1071
       48
1005
1296E
  0
LINE
  5
1296F
330
1293B
100
AcDbEntity
  8
0
370
    -2
100
AcDbLine
 10
0.1988586874589337
 20
-0.9106474272854683
 30
0.0
 11
0.220071890894534
 21
-0.9318606307210615
 31
0.0
1001
AcDbBlockRepETag
1070
     1
1071
       49
1005
1296F
  0
LWPOLYLINE
  5
12970
330
1293B
100
AcDbEntity
  8
0
370
    -2
100
AcDbPolyline
 90
        3
 70
     0
 43
0.0
 10
0.2412850943301272
 20
-0.9106474272854683
 10
0.220071890894534
 20
-0.9318606307210615
 10
0.220071890894534
 20
-1.031860630721062
1001
AcDbBlockRepETag
1070
     1
1071
       50
1005
12970
  0
LINE
  5
12971
330
1293B
100
AcDbEntity
  8
0
370
    -2
100
AcDbLine
 10
0.2412850943301272
 20
-0.9106474272854683
 30
0.0
 11
0.2624982977657275
 21
-0.9318606307210615
 31
0.0
1001
AcDbBlockRepETag
1070
     1
1071
       51
1005
12971
  0
LWPOLYLINE
  5
12972
330
1293B
100
AcDbEntity
  8
0
370
    -2
100
AcDbPolyline
 90
        3
 70
     0
 43
0.0
 10
0.2837115012013207
 20
-0.9106474272854683
 10
0.2624982977657275
 20
-0.9318606307210615
 10
0.2624982977657275
 20
-1.031860630721062
1001
AcDbBlockRepETag
1070
     1
1071
       52
1005
12972
  0
LINE
  5
12973
330
1293B
100
AcDbEntity
  8
0
370
    -2
100
AcDbLine
 10
0.0664322805877511
 20
-1.037926647899048
 30
0.0
 11
0.0876454840233443
 21
-1.016713444463452
 31
0.0
1001
AcDbBlockRepETag
1070
     1
1071
       53
1005
12973
  0
LWPOLYLINE
  5
12974
330
1293B
100
AcDbEntity
  8
0
370
    -2
100
AcDbPolyline
 90
        3
 70
     0
 43
0.0
 10
0.0664322805877511
 20
-0.9955002410278552
 10
0.0876454840233443
 20
-1.016713444463452
 10
0.220071890894534
 20
-1.016713444463452
1001
AcDbBlockRepETag
1070
     1
1071
       54
1005
12974
  0
LINE
  5
12975
330
1293B
100
AcDbEntity
  8
0
370
    -2
100
AcDbLine
 10
0.107293907956258
 20
-0.8033608236705447
 30
0.0
 11
0.1285071113918548
 21
-0.8245740271061379
 31
0.0
1001
AcDbBlockRepETag
1070
     1
1071
       55
1005
12975
  0
LWPOLYLINE
  5
12976
330
1293B
100
AcDbEntity
  8
0
370
    -2
100
AcDbPolyline
 90
        3
 70
     0
 43
0.0
 10
0.1497203148274515
 20
-0.8033608236705447
 10
0.1285071113918548
 20
-0.8245740271061379
 10
0.1285071113918548
 20
-0.8945740271061382
1001
AcDbBlockRepETag
1070
     1
1071
       56
1005
12976
  0
LWPOLYLINE
  5
12977
330
1293B
100
AcDbEntity
  8
0
370
    -2
100
AcDbPolyline
 90
        4
 70
     0
 43
0.0
 10
0.192146721698645
 20
-0.8033608236705447
 10
0.1709335182630483
 20
-0.8245740271061379
 10
0.1709335182630483
 20
-0.8245740271061379
 10
0.1497203148274515
 20
-0.8033608236705447
1001
AcDbBlockRepETag
1070
     1
1071
       57
1005
12977
  0
LWPOLYLINE
  5
12978
330
1293B
100
AcDbEntity
  8
0
370
    -2
100
AcDbPolyline
 90
        4
 70
     0
 43
0.0
 10
0.192146721698645
 20
-0.8313608236705434
 10
0.1709335182630483
 20
-0.8525740271061366
 10
0.1709335182630483
 20
-0.8525740271061366
 10
0.1497203148274515
 20
-0.8313608236705434
1001
AcDbBlockRepETag
1070
     1
1071
       58
1005
12978
  0
LINE
  5
12979
330
1293B
100
AcDbEntity
  8
0
370
    -2
100
AcDbLine
 10
0.192146721698645
 20
-0.8033608236705447
 30
0.0
 11
0.2133599251342417
 21
-0.8245740271061379
 31
0.0
1001
AcDbBlockRepETag
1070
     1
1071
       59
1005
12979
  0
LWPOLYLINE
  5
1297A
330
1293B
100
AcDbEntity
  8
0
370
    -2
100
AcDbPolyline
 90
        3
 70
     0
 43
0.0
 10
0.2345731285698385
 20
-0.8033608236705447
 10
0.2133599251342417
 20
-0.8245740271061379
 10
0.2133599251342417
 20
-0.8945740271061382
1001
AcDbBlockRepETag
1070
     1
1071
       60
1005
1297A
  0
LWPOLYLINE
  5
1297B
330
1293B
100
AcDbEntity
  8
0
370
    -2
100
AcDbPolyline
 90
        4
 70
     0
 43
0.0
 10
0.2769995354410319
 20
-0.8033608236705447
 10
0.2557863320054352
 20
-0.8245740271061379
 10
0.2557863320054352
 20
-0.8245740271061379
 10
0.2345731285698385
 20
-0.8033608236705447
1001
AcDbBlockRepETag
1070
     1
1071
       61
1005
1297B
  0
LWPOLYLINE
  5
1297C
330
1293B
100
AcDbEntity
  8
0
370
    -2
100
AcDbPolyline
 90
        4
 70
     0
 43
0.0
 10
0.2769995354410319
 20
-0.8313608236705434
 10
0.2557863320054352
 20
-0.8525740271061366
 10
0.2557863320054352
 20
-0.8525740271061366
 10
0.2345731285698385
 20
-0.8313608236705434
1001
AcDbBlockRepETag
1070
     1
1071
       62
1005
1297C
  0
LINE
  5
1297D
330
1293B
100
AcDbEntity
  8
0
370
    -2
100
AcDbLine
 10
-0.1480001709145604
 20
-0.8437547853687981
 30
0.0
 11
-0.1267869674789672
 21
-0.8225415819332013
 31
0.0
1001
AcDbBlockRepETag
1070
     1
1071
       63
1005
1297D
  0
LWPOLYLINE
  5
1297E
330
1293B
100
AcDbEntity
  8
0
370
    -2
100
AcDbPolyline
 90
        3
 70
     0
 43
0.0
 10
-0.1480001709145604
 20
-0.8013283784976046
 10
-0.1267869674789672
 20
-0.8225415819332013
 10
-0.056786967478967
 20
-0.8225415819332013
1001
AcDbBlockRepETag
1070
     1
1071
       64
1005
1297E
  0
LINE
  5
1297F
330
1293B
100
AcDbEntity
  8
0
370
    -2
100
AcDbLine
 10
-0.1480001709145604
 20
-0.8861811922399915
 30
0.0
 11
-0.1267869674789672
 21
-0.8649679888043948
 31
0.0
1001
AcDbBlockRepETag
1070
     1
1071
       65
1005
1297F
  0
LWPOLYLINE
  5
12980
330
1293B
100
AcDbEntity
  8
0
370
    -2
100
AcDbPolyline
 90
        3
 70
     0
 43
0.0
 10
-0.1480001709145604
 20
-0.8437547853687981
 10
-0.1267869674789672
 20
-0.8649679888043948
 10
-0.056786967478967
 20
-0.8649679888043948
1001
AcDbBlockRepETag
1070
     1
1071
       66
1005
12980
  0
LINE
  5
12981
330
1293B
100
AcDbEntity
  8
0
370
    -2
100
AcDbLine
 10
-0.0780001709145637
 20
-0.8013283784976081
 30
0.0
 11
-0.056786967478967
 21
-0.8225415819332013
 31
0.0
1001
AcDbBlockRepETag
1070
     1
1071
       67
1005
12981
  0
LWPOLYLINE
  5
12982
330
1293B
100
AcDbEntity
  8
0
370
    -2
100
AcDbPolyline
 90
        3
 70
     0
 43
0.0
 10
-0.0355737640433702
 20
-0.8013283784976081
 10
-0.056786967478967
 20
-0.8225415819332013
 10
-0.056786967478967
 20
-0.8925415819332016
1001
AcDbBlockRepETag
1070
     1
1071
       68
1005
12982
  0
LINE
  5
12983
330
1293B
100
AcDbEntity
  8
0
370
    -2
100
AcDbLine
 10
-0.0355737640433702
 20
-0.8013283784976081
 30
0.0
 11
-0.0143605606077735
 21
-0.8225415819332013
 31
0.0
1001
AcDbBlockRepETag
1070
     1
1071
       69
1005
12983
  0
LWPOLYLINE
  5
12984
330
1293B
100
AcDbEntity
  8
0
370
    -2
100
AcDbPolyline
 90
        3
 70
     0
 43
0.0
 10
0.0068526428278233
 20
-0.8013283784976081
 10
-0.0143605606077735
 20
-0.8225415819332013
 10
-0.0143605606077735
 20
-0.8925415819332016
1001
AcDbBlockRepETag
1070
     1
1071
       70
1005
12984
  0
LINE
  5
12985
330
1293B
100
AcDbEntity
  8
0
370
    -2
100
AcDbLine
 10
0.0068526428278233
 20
-0.8013283784976081
 30
0.0
 11
0.02806584626342
 21
-0.8225415819332013
 31
0.0
1001
AcDbBlockRepETag
1070
     1
1071
       71
1005
12985
  0
LWPOLYLINE
  5
12986
330
1293B
100
AcDbEntity
  8
0
370
    -2
100
AcDbPolyline
 90
        3
 70
     0
 43
0.0
 10
0.0492790496990168
 20
-0.8013283784976081
 10
0.02806584626342
 20
-0.8225415819332013
 10
0.02806584626342
 20
-0.8925415819332016
1001
AcDbBlockRepETag
1070
     1
1071
       72
1005
12986
  0
LWPOLYLINE
  5
12987
330
1293B
100
AcDbEntity
  8
0
370
    -2
100
AcDbPolyline
 90
        4
 70
     0
 43
0.0
 10
0.0904922531346131
 20
-0.8225415819332013
 10
0.0692790496990163
 20
-0.8437547853687945
 10
0.0692790496990163
 20
-0.8437547853687945
 10
0.0480658462634196
 20
-0.8225415819332013
1001
AcDbBlockRepETag
1070
     1
1071
       73
1005
12987
  0
LWPOLYLINE
  5
12988
330
1293B
100
AcDbEntity
  8
0
370
    -2
100
AcDbPolyline
 90
        4
 70
     0
 43
0.0
 10
0.0904922531346131
 20
-0.8465415819332022
 10
0.0692790496990163
 20
-0.8677547853687954
 10
0.0692790496990163
 20
-0.8677547853687954
 10
0.0480658462634196
 20
-0.8465415819332022
1001
AcDbBlockRepETag
1070
     1
1071
       74
1005
12988
  0
LINE
  5
12989
330
1293B
100
AcDbEntity
  8
0
370
    -2
100
AcDbLine
 10
-0.2760174344917239
 20
-0.838252619328184
 30
0.0
 11
-0.2548042310561307
 21
-0.8170394158925873
 31
0.0
1001
AcDbBlockRepETag
1070
     1
1071
       75
1005
12989
  0
LWPOLYLINE
  5
1298A
330
1293B
100
AcDbEntity
  8
0
370
    -2
100
AcDbPolyline
 90
        3
 70
     0
 43
0.0
 10
-0.2760174344917239
 20
-0.7958262124569906
 10
-0.2548042310561307
 20
-0.8170394158925873
 10
-0.1848042310561304
 20
-0.8170394158925873
1001
AcDbBlockRepETag
1070
     1
1071
       76
1005
1298A
  0
LINE
  5
1298B
330
1293B
100
AcDbEntity
  8
0
370
    -2
100
AcDbLine
 10
-0.2760174344917239
 20
-0.8806790261993775
 30
0.0
 11
-0.2548042310561307
 21
-0.8594658227637808
 31
0.0
1001
AcDbBlockRepETag
1070
     1
1071
       77
1005
1298B
  0
LWPOLYLINE
  5
1298C
330
1293B
100
AcDbEntity
  8
0
370
    -2
100
AcDbPolyline
 90
        3
 70
     0
 43
0.0
 10
-0.2760174344917239
 20
-0.838252619328184
 10
-0.2548042310561307
 20
-0.8594658227637808
 10
-0.1848042310561304
 20
-0.8594658227637808
1001
AcDbBlockRepETag
1070
     1
1071
       78
1005
1298C
  0
LINE
  5
1298D
330
1293B
100
AcDbEntity
  8
0
370
    -2
100
AcDbLine
 10
-0.2323807669484239
 20
-0.7958262124569942
 30
0.0
 11
-0.2111675635128272
 21
-0.8170394158925873
 31
0.0
1001
AcDbBlockRepETag
1070
     1
1071
       79
1005
1298D
  0
LWPOLYLINE
  5
1298E
330
1293B
100
AcDbEntity
  8
0
370
    -2
100
AcDbPolyline
 90
        3
 70
     0
 43
0.0
 10
-0.1899543600772304
 20
-0.7958262124569942
 10
-0.2111675635128272
 20
-0.8170394158925873
 10
-0.2111675635128272
 20
-0.8890411799351483
1001
AcDbBlockRepETag
1070
     1
1071
       80
1005
1298E
  0
LINE
  5
1298F
330
1293B
100
AcDbEntity
  8
0
370
    -2
100
AcDbLine
 10
-0.2654144964333476
 20
-0.69681443347055
 30
0.0
 11
-0.2442012929977544
 21
-0.6756012300349532
 31
0.0
1001
AcDbBlockRepETag
1070
     1
1071
       81
1005
1298F
  0
LWPOLYLINE
  5
12990
330
1293B
100
AcDbEntity
  8
0
370
    -2
100
AcDbPolyline
 90
        3
 70
     0
 43
0.0
 10
-0.2654144964333476
 20
-0.6543880265993565
 10
-0.2442012929977544
 20
-0.6756012300349532
 10
-0.1942012929977572
 20
-0.6756012300349532
1001
AcDbBlockRepETag
1070
     1
1071
       82
1005
12990
  0
LINE
  5
12991
330
1293B
100
AcDbEntity
  8
0
370
    -2
100
AcDbLine
 10
-0.2654144964333476
 20
-0.7392408403417435
 30
0.0
 11
-0.2442012929977544
 21
-0.7180276369061467
 31
0.0
1001
AcDbBlockRepETag
1070
     1
1071
       83
1005
12991
  0
LWPOLYLINE
  5
12992
330
1293B
100
AcDbEntity
  8
0
370
    -2
100
AcDbPolyline
 90
        3
 70
     0
 43
0.0
 10
-0.2654144964333476
 20
-0.69681443347055
 10
-0.2442012929977544
 20
-0.7180276369061467
 10
-0.1942012929977572
 20
-0.7180276369061467
1001
AcDbBlockRepETag
1070
     1
1071
       84
1005
12992
  0
LINE
  5
12993
330
1293B
100
AcDbEntity
  8
0
370
    -2
100
AcDbLine
 10
-0.1429880895621629
 20
-0.69681443347055
 30
0.0
 11
-0.1642012929977561
 21
-0.6756012300349532
 31
0.0
1001
AcDbBlockRepETag
1070
     1
1071
       85
1005
12993
  0
LWPOLYLINE
  5
12994
330
1293B
100
AcDbEntity
  8
0
370
    -2
100
AcDbPolyline
 90
        3
 70
     0
 43
0.0
 10
-0.1429880895621629
 20
-0.6543880265993565
 10
-0.1642012929977561
 20
-0.6756012300349532
 10
-0.1942012929977572
 20
-0.6756012300349532
1001
AcDbBlockRepETag
1070
     1
1071
       86
1005
12994
  0
LINE
  5
12995
330
1293B
100
AcDbEntity
  8
0
370
    -2
100
AcDbLine
 10
-0.2154144964333504
 20
-0.7392408403417435
 30
0.0
 11
-0.1942012929977572
 21
-0.7180276369061467
 31
0.0
1001
AcDbBlockRepETag
1070
     1
1071
       87
1005
12995
  0
LWPOLYLINE
  5
12996
330
1293B
100
AcDbEntity
  8
0
370
    -2
100
AcDbPolyline
 90
        3
 70
     0
 43
0.0
 10
-0.2154144964333504
 20
-0.69681443347055
 10
-0.1942012929977572
 20
-0.7180276369061467
 10
-0.1117748861265646
 20
-0.7180276369061467
1001
AcDbBlockRepETag
1070
     1
1071
       88
1005
12996
  0
LINE
  5
12997
330
1293B
100
AcDbEntity
  8
0
370
    -2
100
AcDbLine
 10
-0.1329880895621649
 20
-0.6543880265993565
 30
0.0
 11
-0.1117748861265646
 21
-0.6756012300349497
 31
0.0
1001
AcDbBlockRepETag
1070
     1
1071
       89
1005
12997
  0
LWPOLYLINE
  5
12998
330
1293B
100
AcDbEntity
  8
0
370
    -2
100
AcDbPolyline
 90
        3
 70
     0
 43
0.0
 10
-0.0905616826909714
 20
-0.6543880265993565
 10
-0.1117748861265646
 20
-0.6756012300349497
 10
-0.1117748861265646
 20
-0.7756012300349511
1001
AcDbBlockRepETag
1070
     1
1071
       90
1005
12998
  0
LINE
  5
12999
330
1293B
100
AcDbEntity
  8
0
370
    -2
100
AcDbLine
 10
-0.0905616826909714
 20
-0.6543880265993565
 30
0.0
 11
-0.0693484792553711
 21
-0.6756012300349497
 31
0.0
1001
AcDbBlockRepETag
1070
     1
1071
       91
1005
12999
  0
LWPOLYLINE
  5
1299A
330
1293B
100
AcDbEntity
  8
0
370
    -2
100
AcDbPolyline
 90
        3
 70
     0
 43
0.0
 10
-0.048135275819778
 20
-0.6543880265993565
 10
-0.0693484792553711
 20
-0.6756012300349497
 10
-0.0693484792553711
 20
-0.7756012300349511
1001
AcDbBlockRepETag
1070
     1
1071
       92
1005
1299A
  0
LINE
  5
1299B
330
1293B
100
AcDbEntity
  8
0
370
    -2
100
AcDbLine
 10
-0.2654144964333476
 20
-0.7816672472129369
 30
0.0
 11
-0.2442012929977544
 21
-0.7604540437773402
 31
0.0
1001
AcDbBlockRepETag
1070
     1
1071
       93
1005
1299B
  0
LWPOLYLINE
  5
1299C
330
1293B
100
AcDbEntity
  8
0
370
    -2
100
AcDbPolyline
 90
        3
 70
     0
 43
0.0
 10
-0.2654144964333476
 20
-0.7392408403417435
 10
-0.2442012929977544
 20
-0.7604540437773402
 10
-0.1117748861265646
 20
-0.7604540437773402
1001
AcDbBlockRepETag
1070
     1
1071
       94
1005
1299C
  0
LINE
  5
1299D
330
1293B
100
AcDbEntity
  8
0
370
    -2
100
AcDbLine
 10
0.0190917908320323
 20
-0.7031219120230113
 30
0.0
 11
0.0403049942676255
 21
-0.6819087085874145
 31
0.0
1001
AcDbBlockRepETag
1070
     1
1071
       95
1005
1299D
  0
LWPOLYLINE
  5
1299E
330
1293B
100
AcDbEntity
  8
0
370
    -2
100
AcDbPolyline
 90
        3
 70
     0
 43
0.0
 10
0.0190917908320323
 20
-0.6606955051518178
 10
0.0403049942676255
 20
-0.6819087085874145
 10
0.1103049942676257
 20
-0.6819087085874145
1001
AcDbBlockRepETag
1070
     1
1071
       96
1005
1299E
  0
LINE
  5
1299F
330
1293B
100
AcDbEntity
  8
0
370
    -2
100
AcDbLine
 10
0.0190917908320323
 20
-0.7455483188942047
 30
0.0
 11
0.0403049942676255
 21
-0.724335115458608
 31
0.0
1001
AcDbBlockRepETag
1070
     1
1071
       97
1005
1299F
  0
LWPOLYLINE
  5
129A0
330
1293B
100
AcDbEntity
  8
0
370
    -2
100
AcDbPolyline
 90
        3
 70
     0
 43
0.0
 10
0.0190917908320323
 20
-0.7031219120230113
 10
0.0403049942676255
 20
-0.724335115458608
 10
0.1103049942676257
 20
-0.724335115458608
1001
AcDbBlockRepETag
1070
     1
1071
       98
1005
129A0
  0
LINE
  5
129A1
330
1293B
100
AcDbEntity
  8
0
370
    -2
100
AcDbLine
 10
0.089091790832029
 20
-0.6606955051518213
 30
0.0
 11
0.1103049942676257
 21
-0.6819087085874145
 31
0.0
1001
AcDbBlockRepETag
1070
     1
1071
       99
1005
129A1
  0
LWPOLYLINE
  5
129A2
330
1293B
100
AcDbEntity
  8
0
370
    -2
100
AcDbPolyline
 90
        3
 70
     0
 43
0.0
 10
0.1315181977032225
 20
-0.6606955051518213
 10
0.1103049942676257
 20
-0.6819087085874145
 10
0.1103049942676257
 20
-0.7519087085874148
1001
AcDbBlockRepETag
1070
     1
1071
      100
1005
129A2
  0
LINE
  5
129A3
330
1293B
100
AcDbEntity
  8
0
370
    -2
100
AcDbLine
 10
0.1315181977032225
 20
-0.6606955051518213
 30
0.0
 11
0.1527314011388192
 21
-0.6819087085874145
 31
0.0
1001
AcDbBlockRepETag
1070
     1
1071
      101
1005
129A3
  0
LWPOLYLINE
  5
129A4
330
1293B
100
AcDbEntity
  8
0
370
    -2
100
AcDbPolyline
 90
        3
 70
     0
 43
0.0
 10
0.173944604574416
 20
-0.6606955051518213
 10
0.1527314011388192
 20
-0.6819087085874145
 10
0.1527314011388192
 20
-0.7519087085874148
1001
AcDbBlockRepETag
1070
     1
1071
      102
1005
129A4
  0
LINE
  5
129A5
330
1293B
100
AcDbEntity
  8
0
370
    -2
100
AcDbLine
 10
0.173944604574416
 20
-0.6606955051518213
 30
0.0
 11
0.1951578080100127
 21
-0.6819087085874145
 31
0.0
1001
AcDbBlockRepETag
1070
     1
1071
      103
1005
129A5
  0
LWPOLYLINE
  5
129A6
330
1293B
100
AcDbEntity
  8
0
370
    -2
100
AcDbPolyline
 90
        3
 70
     0
 43
0.0
 10
0.2163710114456094
 20
-0.6606955051518213
 10
0.1951578080100127
 20
-0.6819087085874145
 10
0.1951578080100127
 20
-0.7519087085874148
1001
AcDbBlockRepETag
1070
     1
1071
      104
1005
129A6
  0
LWPOLYLINE
  5
129A7
330
1293B
100
AcDbEntity
  8
0
370
    -2
100
AcDbPolyline
 90
        4
 70
     0
 43
0.0
 10
0.2575842148812057
 20
-0.6819087085874145
 10
0.236371011445609
 20
-0.7031219120230077
 10
0.236371011445609
 20
-0.7031219120230077
 10
0.2151578080100123
 20
-0.6819087085874145
1001
AcDbBlockRepETag
1070
     1
1071
      105
1005
129A7
  0
LWPOLYLINE
  5
129A8
330
1293B
100
AcDbEntity
  8
0
370
    -2
100
AcDbPolyline
 90
        4
 70
     0
 43
0.0
 10
0.2575842148812057
 20
-0.7059087085874154
 10
0.236371011445609
 20
-0.7271219120230086
 10
0.236371011445609
 20
-0.7271219120230086
 10
0.2151578080100123
 20
-0.7059087085874154
1001
AcDbBlockRepETag
1070
     1
1071
      106
1005
129A8
  0
LINE
  5
129A9
330
1293B
100
AcDbEntity
  8
0
370
    -2
100
AcDbLine
 10
-0.2788649129292828
 20
-0.5588055316777379
 30
0.0
 11
-0.2576517094936896
 21
-0.5375923282421411
 31
0.0
1001
AcDbBlockRepETag
1070
     1
1071
      107
1005
129A9
  0
LWPOLYLINE
  5
129AA
330
1293B
100
AcDbEntity
  8
0
370
    -2
100
AcDbPolyline
 90
        3
 70
     0
 43
0.0
 10
-0.2788649129292828
 20
-0.5163791248065444
 10
-0.2576517094936896
 20
-0.5375923282421411
 10
-0.1876517094936894
 20
-0.5375923282421411
1001
AcDbBlockRepETag
1070
     1
1071
      108
1005
129AA
  0
LINE
  5
129AB
330
1293B
100
AcDbEntity
  8
0
370
    -2
100
AcDbLine
 10
-0.2788649129292828
 20
-0.6012319385489313
 30
0.0
 11
-0.2576517094936896
 21
-0.5800187351133346
 31
0.0
1001
AcDbBlockRepETag
1070
     1
1071
      109
1005
129AB
  0
LWPOLYLINE
  5
129AC
330
1293B
100
AcDbEntity
  8
0
370
    -2
100
AcDbPolyline
 90
        3
 70
     0
 43
0.0
 10
-0.2788649129292828
 20
-0.5588055316777379
 10
-0.2576517094936896
 20
-0.5800187351133346
 10
-0.1876517094936894
 20
-0.5800187351133346
1001
AcDbBlockRepETag
1070
     1
1071
      110
1005
129AC
  0
LINE
  5
129AD
330
1293B
100
AcDbEntity
  8
0
370
    -2
100
AcDbLine
 10
-0.2788649129292828
 20
-0.6436583454201248
 30
0.0
 11
-0.2576517094936896
 21
-0.6224451419845281
 31
0.0
1001
AcDbBlockRepETag
1070
     1
1071
      111
1005
129AD
  0
LWPOLYLINE
  5
129AE
330
1293B
100
AcDbEntity
  8
0
370
    -2
100
AcDbPolyline
 90
        3
 70
     0
 43
0.0
 10
-0.2788649129292828
 20
-0.6012319385489313
 10
-0.2576517094936896
 20
-0.6224451419845281
 10
-0.1876517094936894
 20
-0.6224451419845281
1001
AcDbBlockRepETag
1070
     1
1071
      112
1005
129AE
  0
LINE
  5
129AF
330
1293B
100
AcDbEntity
  8
0
370
    -2
100
AcDbLine
 10
-0.2088649129292861
 20
-0.5163791248065479
 30
0.0
 11
-0.1876517094936894
 21
-0.5375923282421411
 31
0.0
1001
AcDbBlockRepETag
1070
     1
1071
      113
1005
129AF
  0
LWPOLYLINE
  5
129B0
330
1293B
100
AcDbEntity
  8
0
370
    -2
100
AcDbPolyline
 90
        3
 70
     0
 43
0.0
 10
-0.1664385060580926
 20
-0.5163791248065479
 10
-0.1876517094936894
 20
-0.5375923282421411
 10
-0.1876517094936894
 20
-0.6375923282421426
1001
AcDbBlockRepETag
1070
     1
1071
      114
1005
129B0
  0
LINE
  5
129B1
330
1293B
100
AcDbEntity
  8
0
370
    -2
100
AcDbLine
 10
-0.0878930870491281
 20
-0.5796376776010597
 30
0.0
 11
-0.066679883613535
 21
-0.558424474165463
 31
0.0
1001
AcDbBlockRepETag
1070
     1
1071
      115
1005
129B1
  0
LWPOLYLINE
  5
129B2
330
1293B
100
AcDbEntity
  8
0
370
    -2
100
AcDbPolyline
 90
        3
 70
     0
 43
0.0
 10
-0.0878930870491281
 20
-0.5372112707298662
 10
-0.066679883613535
 20
-0.558424474165463
 10
0.0033201163864653
 20
-0.558424474165463
1001
AcDbBlockRepETag
1070
     1
1071
      116
1005
129B2
  0
LINE
  5
129B3
330
1293B
100
AcDbEntity
  8
0
370
    -2
100
AcDbLine
 10
-0.0878930870491281
 20
-0.6220640844722532
 30
0.0
 11
-0.066679883613535
 21
-0.6008508810366564
 31
0.0
1001
AcDbBlockRepETag
1070
     1
1071
      117
1005
129B3
  0
LWPOLYLINE
  5
129B4
330
1293B
100
AcDbEntity
  8
0
370
    -2
100
AcDbPolyline
 90
        3
 70
     0
 43
0.0
 10
-0.0878930870491281
 20
-0.5796376776010597
 10
-0.066679883613535
 20
-0.6008508810366564
 10
0.0033201163864653
 20
-0.6008508810366564
1001
AcDbBlockRepETag
1070
     1
1071
      118
1005
129B4
  0
LINE
  5
129B5
330
1293B
100
AcDbEntity
  8
0
370
    -2
100
AcDbLine
 10
-0.0442564195058282
 20
-0.5372112707298698
 30
0.0
 11
-0.0230432160702314
 21
-0.558424474165463
 31
0.0
1001
AcDbBlockRepETag
1070
     1
1071
      119
1005
129B5
  0
LWPOLYLINE
  5
129B6
330
1293B
100
AcDbEntity
  8
0
370
    -2
100
AcDbPolyline
 90
        3
 70
     0
 43
0.0
 10
-0.0018300126346347
 20
-0.5372112707298698
 10
-0.0230432160702314
 20
-0.558424474165463
 10
-0.0230432160702314
 20
-0.6304262382080239
1001
AcDbBlockRepETag
1070
     1
1071
      120
1005
129B6
  0
LINE
  5
129B7
330
1293B
100
AcDbEntity
  8
0
370
    -2
100
AcDbLine
 10
0.0664322805877511
 20
-0.5613132186751529
 30
0.0
 11
0.0876454840233443
 21
-0.5401000152395561
 31
0.0
1001
AcDbBlockRepETag
1070
     1
1071
      121
1005
129B7
  0
LWPOLYLINE
  5
129B8
330
1293B
100
AcDbEntity
  8
0
370
    -2
100
AcDbPolyline
 90
        3
 70
     0
 43
0.0
 10
0.0664322805877511
 20
-0.5188868118039594
 10
0.0876454840233443
 20
-0.5401000152395561
 10
0.1376454840233414
 20
-0.5401000152395561
1001
AcDbBlockRepETag
1070
     1
1071
      122
1005
129B8
  0
LINE
  5
129B9
330
1293B
100
AcDbEntity
  8
0
370
    -2
100
AcDbLine
 10
0.0664322805877511
 20
-0.6037396255463463
 30
0.0
 11
0.0876454840233443
 21
-0.5825264221107496
 31
0.0
1001
AcDbBlockRepETag
1070
     1
1071
      123
1005
129B9
  0
LWPOLYLINE
  5
129BA
330
1293B
100
AcDbEntity
  8
0
370
    -2
100
AcDbPolyline
 90
        3
 70
     0
 43
0.0
 10
0.0664322805877511
 20
-0.5613132186751529
 10
0.0876454840233443
 20
-0.5825264221107496
 10
0.1376454840233414
 20
-0.5825264221107496
1001
AcDbBlockRepETag
1070
     1
1071
      124
1005
129BA
  0
LINE
  5
129BB
330
1293B
100
AcDbEntity
  8
0
370
    -2
100
AcDbLine
 10
0.1888586874589357
 20
-0.5613132186751529
 30
0.0
 11
0.1676454840233426
 21
-0.5401000152395561
 31
0.0
1001
AcDbBlockRepETag
1070
     1
1071
      125
1005
129BB
  0
LWPOLYLINE
  5
129BC
330
1293B
100
AcDbEntity
  8
0
370
    -2
100
AcDbPolyline
 90
        3
 70
     0
 43
0.0
 10
0.1888586874589357
 20
-0.5188868118039594
 10
0.1676454840233426
 20
-0.5401000152395561
 10
0.1376454840233414
 20
-0.5401000152395561
1001
AcDbBlockRepETag
1070
     1
1071
      126
1005
129BC
  0
LINE
  5
129BD
330
1293B
100
AcDbEntity
  8
0
370
    -2
100
AcDbLine
 10
0.1164322805877482
 20
-0.6037396255463463
 30
0.0
 11
0.1376454840233414
 21
-0.5825264221107496
 31
0.0
1001
AcDbBlockRepETag
1070
     1
1071
      127
1005
129BD
  0
LWPOLYLINE
  5
129BE
330
1293B
100
AcDbEntity
  8
0
370
    -2
100
AcDbPolyline
 90
        3
 70
     0
 43
0.0
 10
0.1164322805877482
 20
-0.5613132186751529
 10
0.1376454840233414
 20
-0.5825264221107496
 10
0.220071890894534
 20
-0.5825264221107496
1001
AcDbBlockRepETag
1070
     1
1071
      128
1005
129BE
  0
LINE
  5
129BF
330
1293B
100
AcDbEntity
  8
0
370
    -2
100
AcDbLine
 10
0.1988586874589337
 20
-0.5188868118039594
 30
0.0
 11
0.220071890894534
 21
-0.5401000152395526
 31
0.0
1001
AcDbBlockRepETag
1070
     1
1071
      129
1005
129BF
  0
LWPOLYLINE
  5
129C0
330
1293B
100
AcDbEntity
  8
0
370
    -2
100
AcDbPolyline
 90
        3
 70
     0
 43
0.0
 10
0.2412850943301272
 20
-0.5188868118039594
 10
0.220071890894534
 20
-0.5401000152395526
 10
0.220071890894534
 20
-0.640100015239554
1001
AcDbBlockRepETag
1070
     1
1071
      130
1005
129C0
  0
LINE
  5
129C1
330
1293B
100
AcDbEntity
  8
0
370
    -2
100
AcDbLine
 10
0.2412850943301272
 20
-0.5188868118039594
 30
0.0
 11
0.2624982977657275
 21
-0.5401000152395526
 31
0.0
1001
AcDbBlockRepETag
1070
     1
1071
      131
1005
129C1
  0
LWPOLYLINE
  5
129C2
330
1293B
100
AcDbEntity
  8
0
370
    -2
100
AcDbPolyline
 90
        3
 70
     0
 43
0.0
 10
0.2837115012013207
 20
-0.5188868118039594
 10
0.2624982977657275
 20
-0.5401000152395526
 10
0.2624982977657275
 20
-0.640100015239554
1001
AcDbBlockRepETag
1070
     1
1071
      132
1005
129C2
  0
LINE
  5
129C3
330
1293B
100
AcDbEntity
  8
0
370
    -2
100
AcDbLine
 10
0.0664322805877511
 20
-0.6461660324175398
 30
0.0
 11
0.0876454840233443
 21
-0.6249528289819431
 31
0.0
1001
AcDbBlockRepETag
1070
     1
1071
      133
1005
129C3
  0
LWPOLYLINE
  5
129C4
330
1293B
100
AcDbEntity
  8
0
370
    -2
100
AcDbPolyline
 90
        3
 70
     0
 43
0.0
 10
0.0664322805877511
 20
-0.6037396255463463
 10
0.0876454840233443
 20
-0.6249528289819431
 10
0.220071890894534
 20
-0.6249528289819431
1001
AcDbBlockRepETag
1070
     1
1071
      134
1005
129C4
  0
LINE
  5
129C5
330
1293B
100
AcDbEntity
  8
0
370
    -2
100
AcDbLine
 10
0.107293907956258
 20
-0.4116002081890358
 30
0.0
 11
0.1285071113918548
 21
-0.432813411624629
 31
0.0
1001
AcDbBlockRepETag
1070
     1
1071
      135
1005
129C5
  0
LWPOLYLINE
  5
129C6
330
1293B
100
AcDbEntity
  8
0
370
    -2
100
AcDbPolyline
 90
        3
 70
     0
 43
0.0
 10
0.1497203148274515
 20
-0.4116002081890358
 10
0.1285071113918548
 20
-0.432813411624629
 10
0.1285071113918548
 20
-0.5028134116246293
1001
AcDbBlockRepETag
1070
     1
1071
      136
1005
129C6
  0
LWPOLYLINE
  5
129C7
330
1293B
100
AcDbEntity
  8
0
370
    -2
100
AcDbPolyline
 90
        4
 70
     0
 43
0.0
 10
0.192146721698645
 20
-0.4116002081890358
 10
0.1709335182630483
 20
-0.432813411624629
 10
0.1709335182630483
 20
-0.432813411624629
 10
0.1497203148274515
 20
-0.4116002081890358
1001
AcDbBlockRepETag
1070
     1
1071
      137
1005
129C7
  0
LWPOLYLINE
  5
129C8
330
1293B
100
AcDbEntity
  8
0
370
    -2
100
AcDbPolyline
 90
        4
 70
     0
 43
0.0
 10
0.192146721698645
 20
-0.4396002081890345
 10
0.1709335182630483
 20
-0.4608134116246277
 10
0.1709335182630483
 20
-0.4608134116246277
 10
0.1497203148274515
 20
-0.4396002081890345
1001
AcDbBlockRepETag
1070
     1
1071
      138
1005
129C8
  0
LINE
  5
129C9
330
1293B
100
AcDbEntity
  8
0
370
    -2
100
AcDbLine
 10
0.192146721698645
 20
-0.4116002081890358
 30
0.0
 11
0.2133599251342417
 21
-0.432813411624629
 31
0.0
1001
AcDbBlockRepETag
1070
     1
1071
      139
1005
129C9
  0
LWPOLYLINE
  5
129CA
330
1293B
100
AcDbEntity
  8
0
370
    -2
100
AcDbPolyline
 90
        3
 70
     0
 43
0.0
 10
0.2345731285698385
 20
-0.4116002081890358
 10
0.2133599251342417
 20
-0.432813411624629
 10
0.2133599251342417
 20
-0.5028134116246293
1001
AcDbBlockRepETag
1070
     1
1071
      140
1005
129CA
  0
LWPOLYLINE
  5
129CB
330
1293B
100
AcDbEntity
  8
0
370
    -2
100
AcDbPolyline
 90
        4
 70
     0
 43
0.0
 10
0.2769995354410319
 20
-0.4116002081890358
 10
0.2557863320054352
 20
-0.432813411624629
 10
0.2557863320054352
 20
-0.432813411624629
 10
0.2345731285698385
 20
-0.4116002081890358
1001
AcDbBlockRepETag
1070
     1
1071
      141
1005
129CB
  0
LWPOLYLINE
  5
129CC
330
1293B
100
AcDbEntity
  8
0
370
    -2
100
AcDbPolyline
 90
        4
 70
     0
 43
0.0
 10
0.2769995354410319
 20
-0.4396002081890345
 10
0.2557863320054352
 20
-0.4608134116246277
 10
0.2557863320054352
 20
-0.4608134116246277
 10
0.2345731285698385
 20
-0.4396002081890345
1001
AcDbBlockRepETag
1070
     1
1071
      142
1005
129CC
  0
LINE
  5
129CD
330
1293B
100
AcDbEntity
  8
0
370
    -2
100
AcDbLine
 10
-0.1480001709145604
 20
-0.4519941698872892
 30
0.0
 11
-0.1267869674789672
 21
-0.4307809664516924
 31
0.0
1001
AcDbBlockRepETag
1070
     1
1071
      143
1005
129CD
  0
LWPOLYLINE
  5
129CE
330
1293B
100
AcDbEntity
  8
0
370
    -2
100
AcDbPolyline
 90
        3
 70
     0
 43
0.0
 10
-0.1480001709145604
 20
-0.4095677630160957
 10
-0.1267869674789672
 20
-0.4307809664516924
 10
-0.056786967478967
 20
-0.4307809664516924
1001
AcDbBlockRepETag
1070
     1
1071
      144
1005
129CE
  0
LINE
  5
129CF
330
1293B
100
AcDbEntity
  8
0
370
    -2
100
AcDbLine
 10
-0.1480001709145604
 20
-0.4944205767584826
 30
0.0
 11
-0.1267869674789672
 21
-0.4732073733228859
 31
0.0
1001
AcDbBlockRepETag
1070
     1
1071
      145
1005
129CF
  0
LWPOLYLINE
  5
129D0
330
1293B
100
AcDbEntity
  8
0
370
    -2
100
AcDbPolyline
 90
        3
 70
     0
 43
0.0
 10
-0.1480001709145604
 20
-0.4519941698872892
 10
-0.1267869674789672
 20
-0.4732073733228859
 10
-0.056786967478967
 20
-0.4732073733228859
1001
AcDbBlockRepETag
1070
     1
1071
      146
1005
129D0
  0
LINE
  5
129D1
330
1293B
100
AcDbEntity
  8
0
370
    -2
100
AcDbLine
 10
-0.0780001709145637
 20
-0.4095677630160992
 30
0.0
 11
-0.056786967478967
 21
-0.4307809664516924
 31
0.0
1001
AcDbBlockRepETag
1070
     1
1071
      147
1005
129D1
  0
LWPOLYLINE
  5
129D2
330
1293B
100
AcDbEntity
  8
0
370
    -2
100
AcDbPolyline
 90
        3
 70
     0
 43
0.0
 10
-0.0355737640433702
 20
-0.4095677630160992
 10
-0.056786967478967
 20
-0.4307809664516924
 10
-0.056786967478967
 20
-0.5007809664516927
1001
AcDbBlockRepETag
1070
     1
1071
      148
1005
129D2
  0
LINE
  5
129D3
330
1293B
100
AcDbEntity
  8
0
370
    -2
100
AcDbLine
 10
-0.0355737640433702
 20
-0.4095677630160992
 30
0.0
 11
-0.0143605606077735
 21
-0.4307809664516924
 31
0.0
1001
AcDbBlockRepETag
1070
     1
1071
      149
1005
129D3
  0
LWPOLYLINE
  5
129D4
330
1293B
100
AcDbEntity
  8
0
370
    -2
100
AcDbPolyline
 90
        3
 70
     0
 43
0.0
 10
0.0068526428278233
 20
-0.4095677630160992
 10
-0.0143605606077735
 20
-0.4307809664516924
 10
-0.0143605606077735
 20
-0.5007809664516927
1001
AcDbBlockRepETag
1070
     1
1071
      150
1005
129D4
  0
LINE
  5
129D5
330
1293B
100
AcDbEntity
  8
0
370
    -2
100
AcDbLine
 10
0.0068526428278233
 20
-0.4095677630160992
 30
0.0
 11
0.02806584626342
 21
-0.4307809664516924
 31
0.0
1001
AcDbBlockRepETag
1070
     1
1071
      151
1005
129D5
  0
LWPOLYLINE
  5
129D6
330
1293B
100
AcDbEntity
  8
0
370
    -2
100
AcDbPolyline
 90
        3
 70
     0
 43
0.0
 10
0.0492790496990168
 20
-0.4095677630160992
 10
0.02806584626342
 20
-0.4307809664516924
 10
0.02806584626342
 20
-0.5007809664516927
1001
AcDbBlockRepETag
1070
     1
1071
      152
1005
129D6
  0
LWPOLYLINE
  5
129D7
330
1293B
100
AcDbEntity
  8
0
370
    -2
100
AcDbPolyline
 90
        4
 70
     0
 43
0.0
 10
0.0904922531346131
 20
-0.4307809664516924
 10
0.0692790496990163
 20
-0.4519941698872856
 10
0.0692790496990163
 20
-0.4519941698872856
 10
0.0480658462634196
 20
-0.4307809664516924
1001
AcDbBlockRepETag
1070
     1
1071
      153
1005
129D7
  0
LWPOLYLINE
  5
129D8
330
1293B
100
AcDbEntity
  8
0
370
    -2
100
AcDbPolyline
 90
        4
 70
     0
 43
0.0
 10
0.0904922531346131
 20
-0.4547809664516933
 10
0.0692790496990163
 20
-0.4759941698872865
 10
0.0692790496990163
 20
-0.4759941698872865
 10
0.0480658462634196
 20
-0.4547809664516933
1001
AcDbBlockRepETag
1070
     1
1071
      154
1005
129D8
  0
LINE
  5
129D9
330
1293B
100
AcDbEntity
  8
0
370
    -2
100
AcDbLine
 10
-0.2760174344917239
 20
-0.4464920038466751
 30
0.0
 11
-0.2548042310561307
 21
-0.4252788004110784
 31
0.0
1001
AcDbBlockRepETag
1070
     1
1071
      155
1005
129D9
  0
LWPOLYLINE
  5
129DA
330
1293B
100
AcDbEntity
  8
0
370
    -2
100
AcDbPolyline
 90
        3
 70
     0
 43
0.0
 10
-0.2760174344917239
 20
-0.4040655969754817
 10
-0.2548042310561307
 20
-0.4252788004110784
 10
-0.1848042310561304
 20
-0.4252788004110784
1001
AcDbBlockRepETag
1070
     1
1071
      156
1005
129DA
  0
LINE
  5
129DB
330
1293B
100
AcDbEntity
  8
0
370
    -2
100
AcDbLine
 10
-0.2760174344917239
 20
-0.4889184107178686
 30
0.0
 11
-0.2548042310561307
 21
-0.4677052072822719
 31
0.0
1001
AcDbBlockRepETag
1070
     1
1071
      157
1005
129DB
  0
LWPOLYLINE
  5
129DC
330
1293B
100
AcDbEntity
  8
0
370
    -2
100
AcDbPolyline
 90
        3
 70
     0
 43
0.0
 10
-0.2760174344917239
 20
-0.4464920038466751
 10
-0.2548042310561307
 20
-0.4677052072822719
 10
-0.1848042310561304
 20
-0.4677052072822719
1001
AcDbBlockRepETag
1070
     1
1071
      158
1005
129DC
  0
LINE
  5
129DD
330
1293B
100
AcDbEntity
  8
0
370
    -2
100
AcDbLine
 10
-0.2323807669484239
 20
-0.4040655969754852
 30
0.0
 11
-0.2111675635128272
 21
-0.4252788004110784
 31
0.0
1001
AcDbBlockRepETag
1070
     1
1071
      159
1005
129DD
  0
LWPOLYLINE
  5
129DE
330
1293B
100
AcDbEntity
  8
0
370
    -2
100
AcDbPolyline
 90
        3
 70
     0
 43
0.0
 10
-0.1899543600772304
 20
-0.4040655969754852
 10
-0.2111675635128272
 20
-0.4252788004110784
 10
-0.2111675635128272
 20
-0.4972805644536394
1001
AcDbBlockRepETag
1070
     1
1071
      160
1005
129DE
  0
LINE
  5
129DF
330
1293B
100
AcDbEntity
  8
0
370
    -2
100
AcDbLine
 10
-0.2654144964333476
 20
-0.3112334681887248
 30
0.0
 11
-0.2442012929977544
 21
-0.290020264753128
 31
0.0
1001
AcDbBlockRepETag
1070
     1
1071
      161
1005
129DF
  0
LWPOLYLINE
  5
129E0
330
1293B
100
AcDbEntity
  8
0
370
    -2
100
AcDbPolyline
 90
        3
 70
     0
 43
0.0
 10
-0.2654144964333476
 20
-0.2688070613175313
 10
-0.2442012929977544
 20
-0.290020264753128
 10
-0.1942012929977572
 20
-0.290020264753128
1001
AcDbBlockRepETag
1070
     1
1071
      162
1005
129E0
  0
LINE
  5
129E1
330
1293B
100
AcDbEntity
  8
0
370
    -2
100
AcDbLine
 10
-0.2654144964333476
 20
-0.3536598750599182
 30
0.0
 11
-0.2442012929977544
 21
-0.3324466716243215
 31
0.0
1001
AcDbBlockRepETag
1070
     1
1071
      163
1005
129E1
  0
LWPOLYLINE
  5
129E2
330
1293B
100
AcDbEntity
  8
0
370
    -2
100
AcDbPolyline
 90
        3
 70
     0
 43
0.0
 10
-0.2654144964333476
 20
-0.3112334681887248
 10
-0.2442012929977544
 20
-0.3324466716243215
 10
-0.1942012929977572
 20
-0.3324466716243215
1001
AcDbBlockRepETag
1070
     1
1071
      164
1005
129E2
  0
LINE
  5
129E3
330
1293B
100
AcDbEntity
  8
0
370
    -2
100
AcDbLine
 10
-0.1429880895621629
 20
-0.3112334681887248
 30
0.0
 11
-0.1642012929977561
 21
-0.290020264753128
 31
0.0
1001
AcDbBlockRepETag
1070
     1
1071
      165
1005
129E3
  0
LWPOLYLINE
  5
129E4
330
1293B
100
AcDbEntity
  8
0
370
    -2
100
AcDbPolyline
 90
        3
 70
     0
 43
0.0
 10
-0.1429880895621629
 20
-0.2688070613175313
 10
-0.1642012929977561
 20
-0.290020264753128
 10
-0.1942012929977572
 20
-0.290020264753128
1001
AcDbBlockRepETag
1070
     1
1071
      166
1005
129E4
  0
LINE
  5
129E5
330
1293B
100
AcDbEntity
  8
0
370
    -2
100
AcDbLine
 10
-0.2154144964333504
 20
-0.3536598750599182
 30
0.0
 11
-0.1942012929977572
 21
-0.3324466716243215
 31
0.0
1001
AcDbBlockRepETag
1070
     1
1071
      167
1005
129E5
  0
LWPOLYLINE
  5
129E6
330
1293B
100
AcDbEntity
  8
0
370
    -2
100
AcDbPolyline
 90
        3
 70
     0
 43
0.0
 10
-0.2154144964333504
 20
-0.3112334681887248
 10
-0.1942012929977572
 20
-0.3324466716243215
 10
-0.1117748861265646
 20
-0.3324466716243215
1001
AcDbBlockRepETag
1070
     1
1071
      168
1005
129E6
  0
LINE
  5
129E7
330
1293B
100
AcDbEntity
  8
0
370
    -2
100
AcDbLine
 10
-0.1329880895621649
 20
-0.2688070613175313
 30
0.0
 11
-0.1117748861265646
 21
-0.2900202647531245
 31
0.0
1001
AcDbBlockRepETag
1070
     1
1071
      169
1005
129E7
  0
LWPOLYLINE
  5
129E8
330
1293B
100
AcDbEntity
  8
0
370
    -2
100
AcDbPolyline
 90
        3
 70
     0
 43
0.0
 10
-0.0905616826909714
 20
-0.2688070613175313
 10
-0.1117748861265646
 20
-0.2900202647531245
 10
-0.1117748861265646
 20
-0.3900202647531259
1001
AcDbBlockRepETag
1070
     1
1071
      170
1005
129E8
  0
LINE
  5
129E9
330
1293B
100
AcDbEntity
  8
0
370
    -2
100
AcDbLine
 10
-0.0905616826909714
 20
-0.2688070613175313
 30
0.0
 11
-0.0693484792553711
 21
-0.2900202647531245
 31
0.0
1001
AcDbBlockRepETag
1070
     1
1071
      171
1005
129E9
  0
LWPOLYLINE
  5
129EA
330
1293B
100
AcDbEntity
  8
0
370
    -2
100
AcDbPolyline
 90
        3
 70
     0
 43
0.0
 10
-0.048135275819778
 20
-0.2688070613175313
 10
-0.0693484792553711
 20
-0.2900202647531245
 10
-0.0693484792553711
 20
-0.3900202647531259
1001
AcDbBlockRepETag
1070
     1
1071
      172
1005
129EA
  0
LINE
  5
129EB
330
1293B
100
AcDbEntity
  8
0
370
    -2
100
AcDbLine
 10
-0.2654144964333476
 20
-0.3960862819311117
 30
0.0
 11
-0.2442012929977544
 21
-0.374873078495515
 31
0.0
1001
AcDbBlockRepETag
1070
     1
1071
      173
1005
129EB
  0
LWPOLYLINE
  5
129EC
330
1293B
100
AcDbEntity
  8
0
370
    -2
100
AcDbPolyline
 90
        3
 70
     0
 43
0.0
 10
-0.2654144964333476
 20
-0.3536598750599182
 10
-0.2442012929977544
 20
-0.374873078495515
 10
-0.1117748861265646
 20
-0.374873078495515
1001
AcDbBlockRepETag
1070
     1
1071
      174
1005
129EC
  0
LINE
  5
129ED
330
1293B
100
AcDbEntity
  8
0
370
    -2
100
AcDbLine
 10
0.0190917908320323
 20
-0.317540946741186
 30
0.0
 11
0.0403049942676255
 21
-0.2963277433055893
 31
0.0
1001
AcDbBlockRepETag
1070
     1
1071
      175
1005
129ED
  0
LWPOLYLINE
  5
129EE
330
1293B
100
AcDbEntity
  8
0
370
    -2
100
AcDbPolyline
 90
        3
 70
     0
 43
0.0
 10
0.0190917908320323
 20
-0.2751145398699926
 10
0.0403049942676255
 20
-0.2963277433055893
 10
0.1103049942676257
 20
-0.2963277433055893
1001
AcDbBlockRepETag
1070
     1
1071
      176
1005
129EE
  0
LINE
  5
129EF
330
1293B
100
AcDbEntity
  8
0
370
    -2
100
AcDbLine
 10
0.0190917908320323
 20
-0.3599673536123795
 30
0.0
 11
0.0403049942676255
 21
-0.3387541501767828
 31
0.0
1001
AcDbBlockRepETag
1070
     1
1071
      177
1005
129EF
  0
LWPOLYLINE
  5
129F0
330
1293B
100
AcDbEntity
  8
0
370
    -2
100
AcDbPolyline
 90
        3
 70
     0
 43
0.0
 10
0.0190917908320323
 20
-0.317540946741186
 10
0.0403049942676255
 20
-0.3387541501767828
 10
0.1103049942676257
 20
-0.3387541501767828
1001
AcDbBlockRepETag
1070
     1
1071
      178
1005
129F0
  0
LINE
  5
129F1
330
1293B
100
AcDbEntity
  8
0
370
    -2
100
AcDbLine
 10
0.089091790832029
 20
-0.2751145398699961
 30
0.0
 11
0.1103049942676257
 21
-0.2963277433055893
 31
0.0
1001
AcDbBlockRepETag
1070
     1
1071
      179
1005
129F1
  0
LWPOLYLINE
  5
129F2
330
1293B
100
AcDbEntity
  8
0
370
    -2
100
AcDbPolyline
 90
        3
 70
     0
 43
0.0
 10
0.1315181977032225
 20
-0.2751145398699961
 10
0.1103049942676257
 20
-0.2963277433055893
 10
0.1103049942676257
 20
-0.3663277433055896
1001
AcDbBlockRepETag
1070
     1
1071
      180
1005
129F2
  0
LINE
  5
129F3
330
1293B
100
AcDbEntity
  8
0
370
    -2
100
AcDbLine
 10
0.1315181977032225
 20
-0.2751145398699961
 30
0.0
 11
0.1527314011388192
 21
-0.2963277433055893
 31
0.0
1001
AcDbBlockRepETag
1070
     1
1071
      181
1005
129F3
  0
LWPOLYLINE
  5
129F4
330
1293B
100
AcDbEntity
  8
0
370
    -2
100
AcDbPolyline
 90
        3
 70
     0
 43
0.0
 10
0.173944604574416
 20
-0.2751145398699961
 10
0.1527314011388192
 20
-0.2963277433055893
 10
0.1527314011388192
 20
-0.3663277433055896
1001
AcDbBlockRepETag
1070
     1
1071
      182
1005
129F4
  0
LINE
  5
129F5
330
1293B
100
AcDbEntity
  8
0
370
    -2
100
AcDbLine
 10
0.173944604574416
 20
-0.2751145398699961
 30
0.0
 11
0.1951578080100127
 21
-0.2963277433055893
 31
0.0
1001
AcDbBlockRepETag
1070
     1
1071
      183
1005
129F5
  0
LWPOLYLINE
  5
129F6
330
1293B
100
AcDbEntity
  8
0
370
    -2
100
AcDbPolyline
 90
        3
 70
     0
 43
0.0
 10
0.2163710114456094
 20
-0.2751145398699961
 10
0.1951578080100127
 20
-0.2963277433055893
 10
0.1951578080100127
 20
-0.3663277433055896
1001
AcDbBlockRepETag
1070
     1
1071
      184
1005
129F6
  0
LWPOLYLINE
  5
129F7
330
1293B
100
AcDbEntity
  8
0
370
    -2
100
AcDbPolyline
 90
        4
 70
     0
 43
0.0
 10
0.2575842148812057
 20
-0.2963277433055893
 10
0.236371011445609
 20
-0.3175409467411825
 10
0.236371011445609
 20
-0.3175409467411825
 10
0.2151578080100123
 20
-0.2963277433055893
1001
AcDbBlockRepETag
1070
     1
1071
      185
1005
129F7
  0
LWPOLYLINE
  5
129F8
330
1293B
100
AcDbEntity
  8
0
370
    -2
100
AcDbPolyline
 90
        4
 70
     0
 43
0.0
 10
0.2575842148812057
 20
-0.3203277433055902
 10
0.236371011445609
 20
-0.3415409467411834
 10
0.236371011445609
 20
-0.3415409467411834
 10
0.2151578080100123
 20
-0.3203277433055902
1001
AcDbBlockRepETag
1070
     1
1071
      186
1005
129F8
  0
LINE
  5
129F9
330
1293B
100
AcDbEntity
  8
0
370
    -2
100
AcDbLine
 10
-0.2788649129292828
 20
-0.1649851818774231
 30
0.0
 11
-0.2576517094936896
 21
-0.1437719784418263
 31
0.0
1001
AcDbBlockRepETag
1070
     1
1071
      187
1005
129F9
  0
LWPOLYLINE
  5
129FA
330
1293B
100
AcDbEntity
  8
0
370
    -2
100
AcDbPolyline
 90
        3
 70
     0
 43
0.0
 10
-0.2788649129292828
 20
-0.1225587750062296
 10
-0.2576517094936896
 20
-0.1437719784418263
 10
-0.1876517094936894
 20
-0.1437719784418263
1001
AcDbBlockRepETag
1070
     1
1071
      188
1005
129FA
  0
LINE
  5
129FB
330
1293B
100
AcDbEntity
  8
0
370
    -2
100
AcDbLine
 10
-0.2788649129292828
 20
-0.2074115887486165
 30
0.0
 11
-0.2576517094936896
 21
-0.1861983853130198
 31
0.0
1001
AcDbBlockRepETag
1070
     1
1071
      189
1005
129FB
  0
LWPOLYLINE
  5
129FC
330
1293B
100
AcDbEntity
  8
0
370
    -2
100
AcDbPolyline
 90
        3
 70
     0
 43
0.0
 10
-0.2788649129292828
 20
-0.1649851818774231
 10
-0.2576517094936896
 20
-0.1861983853130198
 10
-0.1876517094936894
 20
-0.1861983853130198
1001
AcDbBlockRepETag
1070
     1
1071
      190
1005
129FC
  0
LINE
  5
129FD
330
1293B
100
AcDbEntity
  8
0
370
    -2
100
AcDbLine
 10
-0.2788649129292828
 20
-0.24983799561981
 30
0.0
 11
-0.2576517094936896
 21
-0.2286247921842133
 31
0.0
1001
AcDbBlockRepETag
1070
     1
1071
      191
1005
129FD
  0
LWPOLYLINE
  5
129FE
330
1293B
100
AcDbEntity
  8
0
370
    -2
100
AcDbPolyline
 90
        3
 70
     0
 43
0.0
 10
-0.2788649129292828
 20
-0.2074115887486165
 10
-0.2576517094936896
 20
-0.2286247921842133
 10
-0.1876517094936894
 20
-0.2286247921842133
1001
AcDbBlockRepETag
1070
     1
1071
      192
1005
129FE
  0
LINE
  5
129FF
330
1293B
100
AcDbEntity
  8
0
370
    -2
100
AcDbLine
 10
-0.2088649129292861
 20
-0.1225587750062331
 30
0.0
 11
-0.1876517094936894
 21
-0.1437719784418263
 31
0.0
1001
AcDbBlockRepETag
1070
     1
1071
      193
1005
129FF
  0
LWPOLYLINE
  5
12A00
330
1293B
100
AcDbEntity
  8
0
370
    -2
100
AcDbPolyline
 90
        3
 70
     0
 43
0.0
 10
-0.1664385060580926
 20
-0.1225587750062331
 10
-0.1876517094936894
 20
-0.1437719784418263
 10
-0.1876517094936894
 20
-0.2437719784418277
1001
AcDbBlockRepETag
1070
     1
1071
      194
1005
12A00
  0
LINE
  5
12A01
330
1293B
100
AcDbEntity
  8
0
370
    -2
100
AcDbLine
 10
-0.0878930870491281
 20
-0.1858173278007449
 30
0.0
 11
-0.066679883613535
 21
-0.1646041243651481
 31
0.0
1001
AcDbBlockRepETag
1070
     1
1071
      195
1005
12A01
  0
LWPOLYLINE
  5
12A02
330
1293B
100
AcDbEntity
  8
0
370
    -2
100
AcDbPolyline
 90
        3
 70
     0
 43
0.0
 10
-0.0878930870491281
 20
-0.1433909209295514
 10
-0.066679883613535
 20
-0.1646041243651481
 10
0.0033201163864653
 20
-0.1646041243651481
1001
AcDbBlockRepETag
1070
     1
1071
      196
1005
12A02
  0
LINE
  5
12A03
330
1293B
100
AcDbEntity
  8
0
370
    -2
100
AcDbLine
 10
-0.0878930870491281
 20
-0.2282437346719384
 30
0.0
 11
-0.066679883613535
 21
-0.2070305312363416
 31
0.0
1001
AcDbBlockRepETag
1070
     1
1071
      197
1005
12A03
  0
LWPOLYLINE
  5
12A04
330
1293B
100
AcDbEntity
  8
0
370
    -2
100
AcDbPolyline
 90
        3
 70
     0
 43
0.0
 10
-0.0878930870491281
 20
-0.1858173278007449
 10
-0.066679883613535
 20
-0.2070305312363416
 10
0.0033201163864653
 20
-0.2070305312363416
1001
AcDbBlockRepETag
1070
     1
1071
      198
1005
12A04
  0
LINE
  5
12A05
330
1293B
100
AcDbEntity
  8
0
370
    -2
100
AcDbLine
 10
-0.0442564195058282
 20
-0.143390920929555
 30
0.0
 11
-0.0230432160702314
 21
-0.1646041243651481
 31
0.0
1001
AcDbBlockRepETag
1070
     1
1071
      199
1005
12A05
  0
LWPOLYLINE
  5
12A06
330
1293B
100
AcDbEntity
  8
0
370
    -2
100
AcDbPolyline
 90
        3
 70
     0
 43
0.0
 10
-0.0018300126346347
 20
-0.143390920929555
 10
-0.0230432160702314
 20
-0.1646041243651481
 10
-0.0230432160702314
 20
-0.2366058884077091
1001
AcDbBlockRepETag
1070
     1
1071
      200
1005
12A06
  0
LINE
  5
12A07
330
1293B
100
AcDbEntity
  8
0
370
    -2
100
AcDbLine
 10
0.0664322805877511
 20
-0.167492868874838
 30
0.0
 11
0.0876454840233443
 21
-0.1462796654392413
 31
0.0
1001
AcDbBlockRepETag
1070
     1
1071
      201
1005
12A07
  0
LWPOLYLINE
  5
12A08
330
1293B
100
AcDbEntity
  8
0
370
    -2
100
AcDbPolyline
 90
        3
 70
     0
 43
0.0
 10
0.0664322805877511
 20
-0.1250664620036446
 10
0.0876454840233443
 20
-0.1462796654392413
 10
0.1376454840233414
 20
-0.1462796654392413
1001
AcDbBlockRepETag
1070
     1
1071
      202
1005
12A08
  0
LINE
  5
12A09
330
1293B
100
AcDbEntity
  8
0
370
    -2
100
AcDbLine
 10
0.0664322805877511
 20
-0.2099192757460315
 30
0.0
 11
0.0876454840233443
 21
-0.1887060723104348
 31
0.0
1001
AcDbBlockRepETag
1070
     1
1071
      203
1005
12A09
  0
LWPOLYLINE
  5
12A0A
330
1293B
100
AcDbEntity
  8
0
370
    -2
100
AcDbPolyline
 90
        3
 70
     0
 43
0.0
 10
0.0664322805877511
 20
-0.167492868874838
 10
0.0876454840233443
 20
-0.1887060723104348
 10
0.1376454840233414
 20
-0.1887060723104348
1001
AcDbBlockRepETag
1070
     1
1071
      204
1005
12A0A
  0
LINE
  5
12A0B
330
1293B
100
AcDbEntity
  8
0
370
    -2
100
AcDbLine
 10
0.1888586874589357
 20
-0.167492868874838
 30
0.0
 11
0.1676454840233426
 21
-0.1462796654392413
 31
0.0
1001
AcDbBlockRepETag
1070
     1
1071
      205
1005
12A0B
  0
LWPOLYLINE
  5
12A0C
330
1293B
100
AcDbEntity
  8
0
370
    -2
100
AcDbPolyline
 90
        3
 70
     0
 43
0.0
 10
0.1888586874589357
 20
-0.1250664620036446
 10
0.1676454840233426
 20
-0.1462796654392413
 10
0.1376454840233414
 20
-0.1462796654392413
1001
AcDbBlockRepETag
1070
     1
1071
      206
1005
12A0C
  0
LINE
  5
12A0D
330
1293B
100
AcDbEntity
  8
0
370
    -2
100
AcDbLine
 10
0.1164322805877482
 20
-0.2099192757460315
 30
0.0
 11
0.1376454840233414
 21
-0.1887060723104348
 31
0.0
1001
AcDbBlockRepETag
1070
     1
1071
      207
1005
12A0D
  0
LWPOLYLINE
  5
12A0E
330
1293B
100
AcDbEntity
  8
0
370
    -2
100
AcDbPolyline
 90
        3
 70
     0
 43
0.0
 10
0.1164322805877482
 20
-0.167492868874838
 10
0.1376454840233414
 20
-0.1887060723104348
 10
0.220071890894534
 20
-0.1887060723104348
1001
AcDbBlockRepETag
1070
     1
1071
      208
1005
12A0E
  0
LINE
  5
12A0F
330
1293B
100
AcDbEntity
  8
0
370
    -2
100
AcDbLine
 10
0.1988586874589337
 20
-0.1250664620036446
 30
0.0
 11
0.220071890894534
 21
-0.1462796654392378
 31
0.0
1001
AcDbBlockRepETag
1070
     1
1071
      209
1005
12A0F
  0
LWPOLYLINE
  5
12A10
330
1293B
100
AcDbEntity
  8
0
370
    -2
100
AcDbPolyline
 90
        3
 70
     0
 43
0.0
 10
0.2412850943301272
 20
-0.1250664620036446
 10
0.220071890894534
 20
-0.1462796654392378
 10
0.220071890894534
 20
-0.2462796654392392
1001
AcDbBlockRepETag
1070
     1
1071
      210
1005
12A10
  0
LINE
  5
12A11
330
1293B
100
AcDbEntity
  8
0
370
    -2
100
AcDbLine
 10
0.2412850943301272
 20
-0.1250664620036446
 30
0.0
 11
0.2624982977657275
 21
-0.1462796654392378
 31
0.0
1001
AcDbBlockRepETag
1070
     1
1071
      211
1005
12A11
  0
LWPOLYLINE
  5
12A12
330
1293B
100
AcDbEntity
  8
0
370
    -2
100
AcDbPolyline
 90
        3
 70
     0
 43
0.0
 10
0.2837115012013207
 20
-0.120946725020076
 10
0.2624982977657275
 20
-0.1421599284556692
 10
0.2624982977657275
 20
-0.2421599284556706
1001
AcDbBlockRepETag
1070
     1
1071
      212
1005
12A12
  0
LINE
  5
12A13
330
1293B
100
AcDbEntity
  8
0
370
    -2
100
AcDbLine
 10
0.0664322805877511
 20
-0.252345682617225
 30
0.0
 11
0.0876454840233443
 21
-0.2311324791816283
 31
0.0
1001
AcDbBlockRepETag
1070
     1
1071
      213
1005
12A13
  0
LWPOLYLINE
  5
12A14
330
1293B
100
AcDbEntity
  8
0
370
    -2
100
AcDbPolyline
 90
        3
 70
     0
 43
0.0
 10
0.0664322805877511
 20
-0.2099192757460315
 10
0.0876454840233443
 20
-0.2311324791816283
 10
0.220071890894534
 20
-0.2311324791816283
1001
AcDbBlockRepETag
1070
     1
1071
      214
1005
12A14
  0
LINE
  5
12A15
330
1293B
100
AcDbEntity
  8
0
370
    -2
100
AcDbLine
 10
0.107293907956258
 20
-0.017779858388721
 30
0.0
 11
0.1285071113918548
 21
-0.0389930618243142
 31
0.0
1001
AcDbBlockRepETag
1070
     1
1071
      215
1005
12A15
  0
LWPOLYLINE
  5
12A16
330
1293B
100
AcDbEntity
  8
0
370
    -2
100
AcDbPolyline
 90
        3
 70
     0
 43
0.0
 10
0.1497203148274515
 20
-0.017779858388721
 10
0.1285071113918548
 20
-0.0389930618243142
 10
0.1285071113918548
 20
-0.1089930618243144
1001
AcDbBlockRepETag
1070
     1
1071
      216
1005
12A16
  0
LWPOLYLINE
  5
12A17
330
1293B
100
AcDbEntity
  8
0
370
    -2
100
AcDbPolyline
 90
        4
 70
     0
 43
0.0
 10
0.192146721698645
 20
-0.017779858388721
 10
0.1709335182630483
 20
-0.0389930618243142
 10
0.1709335182630483
 20
-0.0389930618243142
 10
0.1497203148274515
 20
-0.017779858388721
1001
AcDbBlockRepETag
1070
     1
1071
      217
1005
12A17
  0
LWPOLYLINE
  5
12A18
330
1293B
100
AcDbEntity
  8
0
370
    -2
100
AcDbPolyline
 90
        4
 70
     0
 43
0.0
 10
0.192146721698645
 20
-0.0457798583887197
 10
0.1709335182630483
 20
-0.0669930618243129
 10
0.1709335182630483
 20
-0.0669930618243129
 10
0.1497203148274515
 20
-0.0457798583887197
1001
AcDbBlockRepETag
1070
     1
1071
      218
1005
12A18
  0
LINE
  5
12A19
330
1293B
100
AcDbEntity
  8
0
370
    -2
100
AcDbLine
 10
0.192146721698645
 20
-0.017779858388721
 30
0.0
 11
0.2133599251342417
 21
-0.0389930618243142
 31
0.0
1001
AcDbBlockRepETag
1070
     1
1071
      219
1005
12A19
  0
LWPOLYLINE
  5
12A1A
330
1293B
100
AcDbEntity
  8
0
370
    -2
100
AcDbPolyline
 90
        3
 70
     0
 43
0.0
 10
0.2345731285698385
 20
-0.017779858388721
 10
0.2133599251342417
 20
-0.0389930618243142
 10
0.2133599251342417
 20
-0.1089930618243144
1001
AcDbBlockRepETag
1070
     1
1071
      220
1005
12A1A
  0
LWPOLYLINE
  5
12A1B
330
1293B
100
AcDbEntity
  8
0
370
    -2
100
AcDbPolyline
 90
        4
 70
     0
 43
0.0
 10
0.2769995354410319
 20
-0.017779858388721
 10
0.2557863320054352
 20
-0.0389930618243142
 10
0.2557863320054352
 20
-0.0389930618243142
 10
0.2345731285698385
 20
-0.017779858388721
1001
AcDbBlockRepETag
1070
     1
1071
      221
1005
12A1B
  0
LWPOLYLINE
  5
12A1C
330
1293B
100
AcDbEntity
  8
0
370
    -2
100
AcDbPolyline
 90
        4
 70
     0
 43
0.0
 10
0.2769995354410319
 20
-0.0457798583887197
 10
0.2557863320054352
 20
-0.0669930618243129
 10
0.2557863320054352
 20
-0.0669930618243129
 10
0.2345731285698385
 20
-0.0457798583887197
1001
AcDbBlockRepETag
1070
     1
1071
      222
1005
12A1C
  0
LINE
  5
12A1D
330
1293B
100
AcDbEntity
  8
0
370
    -2
100
AcDbLine
 10
-0.1480001709145604
 20
-0.0581738200869744
 30
0.0
 11
-0.1267869674789672
 21
-0.0369606166513776
 31
0.0
1001
AcDbBlockRepETag
1070
     1
1071
      223
1005
12A1D
  0
LWPOLYLINE
  5
12A1E
330
1293B
100
AcDbEntity
  8
0
370
    -2
100
AcDbPolyline
 90
        3
 70
     0
 43
0.0
 10
-0.1480001709145604
 20
-0.0157474132157809
 10
-0.1267869674789672
 20
-0.0369606166513776
 10
-0.056786967478967
 20
-0.0369606166513776
1001
AcDbBlockRepETag
1070
     1
1071
      224
1005
12A1E
  0
LINE
  5
12A1F
330
1293B
100
AcDbEntity
  8
0
370
    -2
100
AcDbLine
 10
-0.1480001709145604
 20
-0.1006002269581678
 30
0.0
 11
-0.1267869674789672
 21
-0.0793870235225711
 31
0.0
1001
AcDbBlockRepETag
1070
     1
1071
      225
1005
12A1F
  0
LWPOLYLINE
  5
12A20
330
1293B
100
AcDbEntity
  8
0
370
    -2
100
AcDbPolyline
 90
        3
 70
     0
 43
0.0
 10
-0.1480001709145604
 20
-0.0581738200869744
 10
-0.1267869674789672
 20
-0.0793870235225711
 10
-0.056786967478967
 20
-0.0793870235225711
1001
AcDbBlockRepETag
1070
     1
1071
      226
1005
12A20
  0
LINE
  5
12A21
330
1293B
100
AcDbEntity
  8
0
370
    -2
100
AcDbLine
 10
-0.0780001709145637
 20
-0.0157474132157844
 30
0.0
 11
-0.056786967478967
 21
-0.0369606166513776
 31
0.0
1001
AcDbBlockRepETag
1070
     1
1071
      227
1005
12A21
  0
LWPOLYLINE
  5
12A22
330
1293B
100
AcDbEntity
  8
0
370
    -2
100
AcDbPolyline
 90
        3
 70
     0
 43
0.0
 10
-0.0355737640433702
 20
-0.0157474132157844
 10
-0.056786967478967
 20
-0.0369606166513776
 10
-0.056786967478967
 20
-0.1069606166513779
1001
AcDbBlockRepETag
1070
     1
1071
      228
1005
12A22
  0
LINE
  5
12A23
330
1293B
100
AcDbEntity
  8
0
370
    -2
100
AcDbLine
 10
-0.0355737640433702
 20
-0.0157474132157844
 30
0.0
 11
-0.0143605606077735
 21
-0.0369606166513776
 31
0.0
1001
AcDbBlockRepETag
1070
     1
1071
      229
1005
12A23
  0
LWPOLYLINE
  5
12A24
330
1293B
100
AcDbEntity
  8
0
370
    -2
100
AcDbPolyline
 90
        3
 70
     0
 43
0.0
 10
0.0068526428278233
 20
-0.0157474132157844
 10
-0.0143605606077735
 20
-0.0369606166513776
 10
-0.0143605606077735
 20
-0.1069606166513779
1001
AcDbBlockRepETag
1070
     1
1071
      230
1005
12A24
  0
LINE
  5
12A25
330
1293B
100
AcDbEntity
  8
0
370
    -2
100
AcDbLine
 10
0.0068526428278233
 20
-0.0157474132157844
 30
0.0
 11
0.02806584626342
 21
-0.0369606166513776
 31
0.0
1001
AcDbBlockRepETag
1070
     1
1071
      231
1005
12A25
  0
LWPOLYLINE
  5
12A26
330
1293B
100
AcDbEntity
  8
0
370
    -2
100
AcDbPolyline
 90
        3
 70
     0
 43
0.0
 10
0.0492790496990168
 20
-0.0157474132157844
 10
0.02806584626342
 20
-0.0369606166513776
 10
0.02806584626342
 20
-0.1069606166513779
1001
AcDbBlockRepETag
1070
     1
1071
      232
1005
12A26
  0
LWPOLYLINE
  5
12A27
330
1293B
100
AcDbEntity
  8
0
370
    -2
100
AcDbPolyline
 90
        4
 70
     0
 43
0.0
 10
0.0904922531346131
 20
-0.0369606166513776
 10
0.0692790496990163
 20
-0.0581738200869708
 10
0.0692790496990163
 20
-0.0581738200869708
 10
0.0480658462634196
 20
-0.0369606166513776
1001
AcDbBlockRepETag
1070
     1
1071
      233
1005
12A27
  0
LWPOLYLINE
  5
12A28
330
1293B
100
AcDbEntity
  8
0
370
    -2
100
AcDbPolyline
 90
        4
 70
     0
 43
0.0
 10
0.0904922531346131
 20
-0.0609606166513785
 10
0.0692790496990163
 20
-0.0821738200869717
 10
0.0692790496990163
 20
-0.0821738200869717
 10
0.0480658462634196
 20
-0.0609606166513785
1001
AcDbBlockRepETag
1070
     1
1071
      234
1005
12A28
  0
LINE
  5
12A29
330
1293B
100
AcDbEntity
  8
0
370
    -2
100
AcDbLine
 10
-0.2760174344917239
 20
-0.0526716540463603
 30
0.0
 11
-0.2548042310561307
 21
-0.0314584506107636
 31
0.0
1001
AcDbBlockRepETag
1070
     1
1071
      235
1005
12A29
  0
LWPOLYLINE
  5
12A2A
330
1293B
100
AcDbEntity
  8
0
370
    -2
100
AcDbPolyline
 90
        3
 70
     0
 43
0.0
 10
-0.2760174344917239
 20
-0.0102452471751669
 10
-0.2548042310561307
 20
-0.0314584506107636
 10
-0.1848042310561304
 20
-0.0314584506107636
1001
AcDbBlockRepETag
1070
     1
1071
      236
1005
12A2A
  0
LINE
  5
12A2B
330
1293B
100
AcDbEntity
  8
0
370
    -2
100
AcDbLine
 10
-0.2760174344917239
 20
-0.0950980609175538
 30
0.0
 11
-0.2548042310561307
 21
-0.0738848574819571
 31
0.0
1001
AcDbBlockRepETag
1070
     1
1071
      237
1005
12A2B
  0
LWPOLYLINE
  5
12A2C
330
1293B
100
AcDbEntity
  8
0
370
    -2
100
AcDbPolyline
 90
        3
 70
     0
 43
0.0
 10
-0.2760174344917239
 20
-0.0526716540463603
 10
-0.2548042310561307
 20
-0.0738848574819571
 10
-0.1848042310561304
 20
-0.0738848574819571
1001
AcDbBlockRepETag
1070
     1
1071
      238
1005
12A2C
  0
LINE
  5
12A2D
330
1293B
100
AcDbEntity
  8
0
370
    -2
100
AcDbLine
 10
-0.2323807669484239
 20
-0.0102452471751704
 30
0.0
 11
-0.2111675635128272
 21
-0.0314584506107636
 31
0.0
1001
AcDbBlockRepETag
1070
     1
1071
      239
1005
12A2D
  0
LWPOLYLINE
  5
12A2E
330
1293B
100
AcDbEntity
  8
0
370
    -2
100
AcDbPolyline
 90
        3
 70
     0
 43
0.0
 10
-0.1899543600772304
 20
-0.0102452471751704
 10
-0.2111675635128272
 20
-0.0314584506107636
 10
-0.2111675635128272
 20
-0.1034602146533246
1001
AcDbBlockRepETag
1070
     1
1071
      240
1005
12A2E
  0
ENDBLK
  5
12A2F
330
1293B
100
AcDbEntity
  8
0
 62
     1
100
AcDbBlockEnd
  0
ENDSEC
  0
SECTION
  2
ENTITIES
  0
INSERT
  5
12A3C
330
1F
100
AcDbEntity
  8
DEPA
 62
     1
100
AcDbBlockReference
  2
AB_08
 10
29.99999986315658
 20
120.0000027454215
 30
0.0
 41
100.000000478449
 42
100.000000478449
 43
100.000000478449
  0
ENDSEC
  0
SECTION
  2
OBJECTS
  0
DICTIONARY
  5
C
330
0
100
AcDbDictionary
281
     1
  3
ACAD_2007HEADERVARS_RT
350
12A76
  3
ACAD_BACKGROUND
350
3FA
  3
ACAD_COLOR
350
73
  3
ACAD_GROUP
350
D
  3
ACAD_LAYOUT
350
1A
  3
ACAD_MATERIAL
350
72
  3
ACAD_MLINESTYLE
350
17
  3
ACAD_PERSUBENTMGR
350
63B
  3
ACAD_PLOTSETTINGS
350
19
  3
ACAD_PLOTSTYLENAME
350
E
  3
ACAD_TABLESTYLE
350
86
  3
ACAD_VISUALSTYLE
350
99
  3
AcAec
350
206
  3
AcDbVariableDictionary
350
66
  3
AEC_CLASSIFICATION_SYSTEM_DEFS
350
11467
  3
AEC_DISP_REP_CONFIGURATIONS
350
1F9
  3
AEC_DISP_REP_SETS
350
1E7
  3
AEC_DISP_REPS
350
C1
  3
AEC_DISPLAY_PROPS_DEFAULTS
350
C3
  3
AEC_LAYERKEY_STYLES
350
1F1
  3
AEC_PROPERTY_SET_DEFS
350
205
  3
AEC_VARS
350
CA
  3
DWGPROPS
350
12A75
  0
DICTIONARY
  5
56B
330
8
100
AcDbDictionary
280
     1
281
     1
  0
DICTIONARY
  5
1F7
330
2
100
AcDbDictionary
280
     1
281
     1
  3
ACAD_LAYERFILTERS
360
3A7
  3
ACAD_LAYERSTATES
360
1F8
  3
ACLYDICTIONARY
360
3A6
  0
DICTIONARY
  5
2DE
330
1F
100
AcDbDictionary
280
     1
281
     1
  3
ACAD_SORTENTS
360
2DF
  0
DICTIONARY
  5
1293C
330
1293B
100
AcDbDictionary
280
     1
281
     1
  0
DICTIONARY
  5
12A76
102
{ACAD_REACTORS
330
C
102
}
330
C
100
AcDbDictionary
281
     1
  3
DIMFXL
350
12A78
  3
DIMFXLON
350
12A77
  3
DIMLTEX1
350
12A7A
  3
DIMLTEX2
350
12A7B
  3
DIMLTYPE
350
12A79
  0
DICTIONARY
  5
3FA
102
{ACAD_REACTORS
330
C
102
}
330
C
100
AcDbDictionary
281
     1
  0
DICTIONARY
  5
73
102
{ACAD_REACTORS
330
C
102
}
330
C
100
AcDbDictionary
281
     1
  0
DICTIONARY
  5
D
102
{ACAD_REACTORS
330
C
102
}
330
C
100
AcDbDictionary
281
     1
  0
DICTIONARY
  5
1A
102
{ACAD_REACTORS
330
C
102
}
330
C
100
AcDbDictionary
281
     1
  3
Layout1
350
59
  3
Layout2
350
5E
  3
Model
350
22
  0
DICTIONARY
  5
72
102
{ACAD_REACTORS
330
C
102
}
330
C
100
AcDbDictionary
281
     1
  3
ByBlock
350
97
  3
ByLayer
350
96
  3
Global
350
98
  0
DICTIONARY
  5
17
102
{ACAD_REACTORS
330
C
102
}
330
C
100
AcDbDictionary
281
     1
  3
Standard
350
18
  0
ACAD_PROXY_OBJECT
  5
63B
102
{ACAD_REACTORS
330
C
102
}
330
C
100
AcDbProxyObject
 90
      499
 91
      739
 95
       23
 70
     0
 93
     5066
310
40A4086529000099334CA00000D4280000354A00000D628000035CA00000D8280000364A00000DA28000036CA00000DC280000374A00000DE28000037CA00000E0280000384A00000E228000038CA00000E4280000394A00000E628000039CA00000E82800003A4A00000EA2800003ACA00000EC2800003B4A00000EE28000
310
03BCA00000F02800003C4A00000F22800003CCA00000F42800003D4A00000F62800003DCA00000F82800003E4A00000FA2800003ECA00000FC2800003F4A00000FE2800003FCA0000000290000004A400000229000000CA4000004290000014A400000629000001CA4000008290000024A400000A29000002CA400000C2900
310
00034A400000E29000003CA4000010290000044A400001229000004CA4000014290000054A400001629000005CA4000018290000064A400001A29000006CA400001C290000074A400001E29000007CA4000020290000084A400002229000008CA4000024290000094A400002629000009CA40000282900000A4A400002A290
310
0000ACA400002C2900000B4A400002E2900000BCA40000302900000C4A40000322900000CCA40000342900000D4A40000362900000DCA40000382900000E4A400003A2900000ECA400003C2900000F4A400003E2900000FCA4000040290000104A400004229000010CA4000044290000114A400004629000011CA400004829
310
0000124A400004A29000012CA400004C290000134A400004E29000013CA4000050290000144A400005229000014CA4000054290000154A400005629000015CA4000058290000164A400005A29000016CA400005C290000174A400005E29000017CA4000060290000184A400006229000018CA4000064290000194A40003F
 94
        0
1001
ACAD
1000
AcRTDxfName
1000
ACDBPERSSUBENTMANAGER
1000
AcRTDxfName
1000
ACDBPERSSUBENTMANAGER
1000
AcRTDxfName
1000
ACDBPERSSUBENTMANAGER
1000
AcRTDxfName
1000
ACDBPERSSUBENTMANAGER
1000
AcRTDxfName
1000
ACDBPERSSUBENTMANAGER
1000
AcRTDxfName
1000
ACDBPERSSUBENTMANAGER
  0
DICTIONARY
  5
19
102
{ACAD_REACTORS
330
C
102
}
330
C
100
AcDbDictionary
281
     1
  0
ACDBDICTIONARYWDFLT
  5
E
102
{ACAD_REACTORS
330
C
102
}
330
C
100
AcDbDictionary
281
     1
  3
Full Saturation
350
1F6
  3
Normal
350
F
100
AcDbDictionaryWithDefault
340
F
  0
DICTIONARY
  5
86
102
{ACAD_REACTORS
330
C
102
}
330
C
100
AcDbDictionary
281
     1
  3
Standard
350
87
  0
DICTIONARY
  5
99
102
{ACAD_REACTORS
330
C
102
}
330
C
100
AcDbDictionary
281
     1
  3
2dWireframe
350
9F
  3
3D Hidden
350
A1
  3
3dWireframe
350
A0
  3
Basic
350
9E
  3
Brighten
350
A5
  3
ColorChange
350
A9
  3
Conceptual
350
A2
  3
Dim
350
A4
  3
Facepattern
350
A8
  3
Flat
350
9A
  3
FlatWithEdges
350
9B
  3
Gouraud
350
9C
  3
GouraudWithEdges
350
9D
  3
Linepattern
350
A7
  3
Realistic
350
A3
  3
Thicken
350
A6
  0
DICTIONARY
  5
206
102
{ACAD_REACTORS
330
C
102
}
330
C
100
AcDbDictionary
281
     1
  3
AcAecLayerManager
350
207
  0
DICTIONARY
  5
66
102
{ACAD_REACTORS
330
C
102
}
330
C
100
AcDbDictionary
281
     1
  3
CTABLESTYLE
350
89
  3
DIMASSOC
350
67
  3
HIDETEXT
350
6B
  3
INDEXCTL
350
5F5
  3
SORTENTS
350
5F4
  0
DICTIONARY
  5
11467
102
{ACAD_REACTORS
330
C
102
}
330
C
100
AcDbDictionary
281
     1
  0
DICTIONARY
  5
1F9
102
{ACAD_REACTORS
330
C
102
}
330
C
100
AcDbDictionary
281
     1
  3
Medium Detail
350
1FA
  3
Standard
350
209
1001
AECBASE
1070
 10000
1005
1FA
  0
DICTIONARY
  5
1E7
102
{ACAD_REACTORS
330
C
102
}
330
C
100
AcDbDictionary
281
     1
  3
Elevation
350
1EB
  3
Model
350
1E8
  3
Model High Detail
350
1EF
  3
Model Low Detail
350
1EE
  3
Plan
350
1E9
  3
Plan Diagnostic
350
1F0
  3
Plan High Detail
350
1ED
  3
Plan Low Detail
350
1EC
  3
Reflected
350
1EA
  0
DICTIONARY
  5
C1
102
{ACAD_REACTORS
330
C
102
}
330
C
100
AcDbDictionary
281
     1
  3
AecDbDispRep2dSection
350
13F
  3
AecDbDispRepAnchor
350
141
  3
AecDbDispRepAnchorBubToGrid
350
C2
  3
AecDbDispRepAnchorBubToGridMdl
350
C5
  3
AecDbDispRepAnchorBubToGridRcp
350
C7
  3
AecDbDispRepAnchorEntToNode
350
142
  3
AecDbDispRepAnchorExtendedTagToEnt
350
16D
  3
AecDbDispRepAnchorTagToEnt
350
16B
  3
AecDbDispRepBdgElevLineModel
350
171
  3
AecDbDispRepBdgElevLinePlan
350
173
  3
AecDbDispRepBdgElevLinePlan100
350
E1
  3
AecDbDispRepBdgElevLinePlan50
350
FC
  3
AecDbDispRepBdgElevLineRcp
350
175
  3
AecDbDispRepBdgSectionLineModel
350
177
  3
AecDbDispRepBdgSectionLinePlan
350
179
  3
AecDbDispRepBdgSectionLinePlan100
350
E3
  3
AecDbDispRepBdgSectionLinePlan50
350
FE
  3
AecDbDispRepBdgSectionLineRcp
350
17B
  3
AecDbDispRepBdgSectionModel
350
17D
  3
AecDbDispRepBdgSectionSubDiv
350
17E
  3
AecDbDispRepCeilingGrid
350
180
  3
AecDbDispRepCeilingGridModel
350
182
  3
AecDbDispRepCeilingGridPlan100
350
E5
  3
AecDbDispRepCeilingGridPlan50
350
100
  3
AecDbDispRepCeilingGridRcp
350
184
  3
AecDbDispRepClipVolModel
350
144
  3
AecDbDispRepClipVolPlan
350
146
  3
AecDbDispRepClipVolResSubDiv
350
149
  3
AecDbDispRepClipVolResult
350
148
  3
AecDbDispRepColumnGrid
350
C9
  3
AecDbDispRepColumnGridModel
350
CD
  3
AecDbDispRepColumnGridPlan100
350
E7
  3
AecDbDispRepColumnGridPlan50
350
102
  3
AecDbDispRepColumnGridRcp
350
CF
  3
AecDbDispRepCurtainWallLayoutModel
350
186
  3
AecDbDispRepCurtainWallLayoutPlan
350
188
  3
AecDbDispRepCurtainWallLayoutPlan100
350
E9
  3
AecDbDispRepCurtainWallLayoutPlan50
350
104
  3
AecDbDispRepCurtainWallUnitModel
350
18A
  3
AecDbDispRepCurtainWallUnitPlan
350
18C
  3
AecDbDispRepCurtainWallUnitPlan100
350
EB
  3
AecDbDispRepCurtainWallUnitPlan50
350
106
  3
AecDbDispRepDimGroupPlan
350
11B
  3
AecDbDispRepDimGroupPlan100
350
117
  3
AecDbDispRepDimGroupPlan50
350
119
  3
AecDbDispRepDisplayTheme
350
14B
  3
AecDbDispRepDoorElev
350
190
  3
AecDbDispRepDoorModel
350
18E
  3
AecDbDispRepDoorNominal
350
194
  3
AecDbDispRepDoorPlan
350
192
  3
AecDbDispRepDoorPlan50
350
11D
  3
AecDbDispRepDoorPlanHekto
350
11F
  3
AecDbDispRepDoorRcp
350
196
  3
AecDbDispRepDoorThresholdPlan
350
198
  3
AecDbDispRepDoorThresholdSymbolPlan
350
121
  3
AecDbDispRepEditInPlaceProfile
350
14D
  3
AecDbDispRepEntRef
350
14F
  3
AecDbDispRepLayoutCurve
350
151
  3
AecDbDispRepLayoutGrid2d
350
153
  3
AecDbDispRepLayoutGrid3d
350
155
  3
AecDbDispRepMaskBlockRef
350
157
  3
AecDbDispRepMaskBlockRefRcp
350
19A
  3
AecDbDispRepMassElemModel
350
163
  3
AecDbDispRepMassElemPlan100
350
123
  3
AecDbDispRepMassElemPlan50
350
125
  3
AecDbDispRepMassElemRcp
350
19C
  3
AecDbDispRepMassElemSchem
350
165
  3
AecDbDispRepMassGroupModel
350
167
  3
AecDbDispRepMassGroupPlan
350
169
  3
AecDbDispRepMassGroupPlan100
350
127
  3
AecDbDispRepMassGroupPlan50
350
129
  3
AecDbDispRepMassGroupRcp
350
19E
  3
AecDbDispRepMaterial
350
159
  3
AecDbDispRepMvBlockRef
350
15B
  3
AecDbDispRepMvBlockRef$Plan
350
1FD
  3
AecDbDispRepMvBlockRefModel
350
15C
  3
AecDbDispRepMvBlockRefPlan100
350
ED
  3
AecDbDispRepMvBlockRefPlan50
350
108
  3
AecDbDispRepMvBlockRefRcp
350
1A0
  3
AecDbDispRepOpening
350
1A1
  3
AecDbDispRepOpeningModel
350
1A3
  3
AecDbDispRepOpeningPlan100
350
12B
  3
AecDbDispRepOpeningPlan50
350
12D
  3
AecDbDispRepOpeningPlanReflected
350
12F
  3
AecDbDispRepOpeningSillPlan
350
131
  3
AecDbDispRepPolygonModel
350
15D
  3
AecDbDispRepPolygonTrueColour
350
15F
  3
AecDbDispRepRailingModel
350
1A5
  3
AecDbDispRepRailingPlan
350
1A7
  3
AecDbDispRepRailingPlan100
350
133
  3
AecDbDispRepRailingPlan50
350
135
  3
AecDbDispRepRoofModel
350
1A9
  3
AecDbDispRepRoofPlan
350
1AB
  3
AecDbDispRepRoofPlan100
350
EE
  3
AecDbDispRepRoofPlan50
350
109
  3
AecDbDispRepRoofRcp
350
1AD
  3
AecDbDispRepRoofSlabModel
350
1B1
  3
AecDbDispRepRoofSlabPlan
350
1B5
  3
AecDbDispRepRoofSlabPlan100
350
F0
  3
AecDbDispRepRoofSlabPlan50
350
10B
  3
AecDbDispRepScheduleTable
350
16F
  3
AecDbDispRepSlabModel
350
1AF
  3
AecDbDispRepSlabPlan
350
1B3
  3
AecDbDispRepSlabPlan100
350
F2
  3
AecDbDispRepSlabPlan50
350
10D
  3
AecDbDispRepSlice
350
161
  3
AecDbDispRepSpaceDecomposed
350
1B7
  3
AecDbDispRepSpaceModel
350
1B9
  3
AecDbDispRepSpacePlan
350
1BB
  3
AecDbDispRepSpacePlan100
350
F4
  3
AecDbDispRepSpacePlan50
350
10F
  3
AecDbDispRepSpaceRcp
350
1BD
  3
AecDbDispRepSpaceVolume
350
1BF
  3
AecDbDispRepStairModel
350
1C1
  3
AecDbDispRepStairPlan
350
1C3
  3
AecDbDispRepStairPlan100
350
137
  3
AecDbDispRepStairPlan50
350
139
  3
AecDbDispRepStairPlanOverlapping
350
1C5
  3
AecDbDispRepStairRcp
350
1C7
  3
AecDbDispRepWallGraph
350
1C9
  3
AecDbDispRepWallModel
350
1CB
  3
AecDbDispRepWallPlan
350
1CD
  3
AecDbDispRepWallPlan100
350
F6
  3
AecDbDispRepWallPlan50
350
111
  3
AecDbDispRepWallRcp
350
1CF
  3
AecDbDispRepWallSchem
350
1D1
  3
AecDbDispRepWindowAssemblyModel
350
1D3
  3
AecDbDispRepWindowAssemblyPlan
350
1D5
  3
AecDbDispRepWindowAssemblyPlan100
350
F8
  3
AecDbDispRepWindowAssemblyPlan50
350
113
  3
AecDbDispRepWindowAssemblySillPlan
350
1D7
  3
AecDbDispRepWindowElev
350
1DB
  3
AecDbDispRepWindowModel
350
1D9
  3
AecDbDispRepWindowNominal
350
1DF
  3
AecDbDispRepWindowPlan
350
1DD
  3
AecDbDispRepWindowPlan100
350
13B
  3
AecDbDispRepWindowPlan50
350
13D
  3
AecDbDispRepWindowRcp
350
1E1
  3
AecDbDispRepWindowSillPlan
350
1E3
  3
AecDbDispRepZone
350
1E5
  3
AecDbDispRepZonePlan100
350
FA
  3
AecDbDispRepZonePlan50
350
115
  3
AecsDbDispRepMemberElevationDesign
350
D1
  3
AecsDbDispRepMemberElevationDetail
350
D3
  3
AecsDbDispRepMemberLogical
350
D5
  3
AecsDbDispRepMemberModelDesign
350
D7
  3
AecsDbDispRepMemberModelDetail
350
D9
  3
AecsDbDispRepMemberPlanDesign
350
DB
  3
AecsDbDispRepMemberPlanDetail
350
DD
  3
AecsDbDispRepMemberPlanSketch
350
DF
  0
DICTIONARY
  5
C3
102
{ACAD_REACTORS
330
C
102
}
330
C
100
AcDbDictionary
281
     1
  3
*A1
350
C4
  3
*A10
350
178
  3
*A100
350
1B4
  3
*A101
350
1B6
  3
*A102
350
140
  3
*A103
350
1D0
  3
*A104
350
185
  3
*A105
350
154
  3
*A106
350
124
  3
*A107
350
CE
  3
*A108
350
1A6
  3
*A109
350
118
  3
*A11
350
DC
  3
*A110
350
1D2
  3
*A111
350
1E2
  3
*A112
350
126
  3
*A113
350
19D
  3
*A114
350
1D4
  3
*A115
350
1D6
  3
*A116
350
187
  3
*A117
350
10C
  3
*A118
350
18B
  3
*A119
350
105
  3
*A12
350
166
  3
*A120
350
E0
  3
*A121
350
195
  3
*A122
350
1D8
  3
*A123
350
16A
  3
*A124
350
E6
  3
*A125
350
17A
  3
*A126
350
D0
  3
*A127
350
FD
  3
*A128
350
14A
  3
*A129
350
14E
  3
*A13
350
F5
  3
*A130
350
13E
  3
*A131
350
1C6
  3
*A132
350
E8
  3
*A133
350
EA
  3
*A134
350
1A4
  3
*A135
350
1BA
  3
*A136
350
128
  3
*A137
350
1C0
  3
*A138
350
C6
  3
*A139
350
189
  3
*A14
350
110
  3
*A140
350
1AC
  3
*A141
350
FF
  3
*A15
350
120
  3
*A16
350
174
  3
*A17
350
D4
  3
*A18
350
112
  3
*A19
350
114
  3
*A2
350
1CC
  3
*A20
350
1DC
  3
*A21
350
156
  3
*A22
350
1E0
  3
*A23
350
150
  3
*A24
350
1B8
  3
*A25
350
122
  3
*A26
350
CC
  3
*A27
350
116
  3
*A28
350
1BE
  3
*A29
350
12C
  3
*A3
350
EC
  3
*A30
350
1CE
  3
*A31
350
18F
  3
*A32
350
145
  3
*A33
350
19B
  3
*A34
350
19F
  3
*A35
350
13C
  3
*A36
350
191
  3
*A37
350
101
  3
*A38
350
12E
  3
*A39
350
130
  3
*A4
350
EF
  3
*A40
350
DA
  3
*A41
350
F3
  3
*A42
350
176
  3
*A43
350
FB
  3
*A44
350
132
  3
*A45
350
1DE
  3
*A46
350
15A
  3
*A47
350
E4
  3
*A48
350
147
  3
*A49
350
16E
  3
*A5
350
193
  3
*A50
350
1C8
  3
*A51
350
1BC
  3
*A52
350
15E
  3
*A53
350
160
  3
*A54
350
107
  3
*A55
350
11A
  3
*A56
350
1AA
  3
*A57
350
11E
  3
*A58
350
1A2
  3
*A59
350
F1
  3
*A6
350
10E
  3
*A60
350
170
  3
*A61
350
162
  3
*A62
350
164
  3
*A63
350
F9
  3
*A64
350
17C
  3
*A65
350
134
  3
*A66
350
10A
  3
*A67
350
1E4
  3
*A68
350
197
  3
*A69
350
D2
  3
*A7
350
1DA
  3
*A70
350
D6
  3
*A71
350
18D
  3
*A72
350
1E6
  3
*A73
350
14C
  3
*A74
350
17F
  3
*A75
350
181
  3
*A76
350
136
  3
*A77
350
DE
  3
*A78
350
13A
  3
*A79
350
1CA
  3
*A8
350
1A8
  3
*A80
350
143
  3
*A81
350
183
  3
*A82
350
11C
  3
*A83
350
1AE
  3
*A84
350
12A
  3
*A85
350
199
  3
*A86
350
1C2
  3
*A87
350
C8
  3
*A88
350
103
  3
*A89
350
F7
  3
*A9
350
172
  3
*A90
350
1B0
  3
*A91
350
1B2
  3
*A92
350
152
  3
*A93
350
168
  3
*A94
350
E2
  3
*A95
350
16C
  3
*A96
350
D8
  3
*A97
350
138
  3
*A98
350
158
  3
*A99
350
1C4
  0
DICTIONARY
  5
1F1
102
{ACAD_REACTORS
330
C
102
}
330
C
100
AcDbDictionary
281
     1
  3
AIA (256 Color)
350
200
  0
DICTIONARY
  5
205
102
{ACAD_REACTORS
330
C
102
}
330
C
100
AcDbDictionary
281
     1
  0
DICTIONARY
  5
CA
102
{ACAD_REACTORS
330
C
102
}
330
C
100
AcDbDictionary
281
     1
  3
AEC_VARS_ARCHBASE
350
203
  3
AEC_VARS_DWG_SETUP
350
CB
  3
AECMX_VARS_MUNICH
350
204
  0
XRECORD
  5
12A75
102
{ACAD_REACTORS
330
C
102
}
330
C
100
AcDbXrecord
280
     1
  1
DWGPROPS COOKIE
  2

  3

  4

  6

  7

  8
User
  9

300
=
301
=
302
=
303
=
304
=
305
=
306
=
307
=
308
=
309
=
 40
0.6895053819444445
 41
2455020.45785662
 42
2455064.674337917
  1

 90
        0
  0
DICTIONARY
  5
3A7
102
{ACAD_REACTORS
330
1F7
102
}
330
1F7
100
AcDbDictionary
281
     1
  0
DICTIONARY
  5
1F8
102
{ACAD_REACTORS
330
1F7
102
}
330
1F7
100
AcDbDictionary
281
     1
  0
DICTIONARY
  5
3A6
102
{ACAD_REACTORS
330
1F7
102
}
330
1F7
100
AcDbDictionary
281
     1
1001
ACAD
1000
<All
  0
SORTENTSTABLE
  5
2DF
102
{ACAD_REACTORS
330
2DE
102
}
330
2DE
100
AcDbSortentsTable
330
1F
  0
XRECORD
  5
12A78
102
{ACAD_REACTORS
330
12A76
102
}
330
12A76
100
AcDbXrecord
280
     1
 40
0.1
  0
XRECORD
  5
12A77
102
{ACAD_REACTORS
330
12A76
102
}
330
12A76
100
AcDbXrecord
280
     1
290
     1
  0
XRECORD
  5
12A7A
102
{ACAD_REACTORS
330
12A76
102
}
330
12A76
100
AcDbXrecord
280
     1
340
16
  0
XRECORD
  5
12A7B
102
{ACAD_REACTORS
330
12A76
102
}
330
12A76
100
AcDbXrecord
280
     1
340
16
  0
XRECORD
  5
12A79
102
{ACAD_REACTORS
330
12A76
102
}
330
12A76
100
AcDbXrecord
280
     1
340
16
  0
LAYOUT
  5
59
102
{ACAD_XDICTIONARY
360
12A7E
102
}
102
{ACAD_REACTORS
330
1A
102
}
330
1A
100
AcDbPlotSettings
  1

  2
None
  4

  6

 40
0.0
 41
0.0
 42
0.0
 43
0.0
 44
0.0
 45
0.0
 46
0.0
 47
0.0
 48
0.0
 49
0.0
140
0.0
141
0.0
142
1.0
143
1.0
 70
   688
 72
     0
 73
     0
 74
     5
  7

 75
    16
147
1.0
148
0.0
149
0.0
100
AcDbLayout
  1
Layout1
 70
     1
 71
     1
 10
0.0
 20
0.0
 11
12.0
 21
9.0
 12
0.0
 22
0.0
 32
0.0
 14
0.0
 24
0.0
 34
0.0
 15
0.0
 25
0.0
 35
0.0
146
0.0
 13
0.0
 23
0.0
 33
0.0
 16
1.0
 26
0.0
 36
0.0
 17
0.0
 27
1.0
 37
0.0
 76
     0
330
58
  0
LAYOUT
  5
5E
102
{ACAD_XDICTIONARY
360
12A80
102
}
102
{ACAD_REACTORS
330
1A
102
}
330
1A
100
AcDbPlotSettings
  1

  2
None
  4

  6

 40
0.0
 41
0.0
 42
0.0
 43
0.0
 44
0.0
 45
0.0
 46
0.0
 47
0.0
 48
0.0
 49
0.0
140
0.0
141
0.0
142
1.0
143
1.0
 70
   688
 72
     0
 73
     0
 74
     5
  7

 75
    16
147
1.0
148
0.0
149
0.0
100
AcDbLayout
  1
Layout2
 70
     1
 71
     2
 10
0.0
 20
0.0
 11
12.0
 21
9.0
 12
0.0
 22
0.0
 32
0.0
 14
0.0
 24
0.0
 34
0.0
 15
0.0
 25
0.0
 35
0.0
146
0.0
 13
0.0
 23
0.0
 33
0.0
 16
1.0
 26
0.0
 36
0.0
 17
0.0
 27
1.0
 37
0.0
 76
     0
330
5D
  0
LAYOUT
  5
22
102
{ACAD_XDICTIONARY
360
12A7C
102
}
102
{ACAD_REACTORS
330
1A
102
}
330
1A
100
AcDbPlotSettings
  1

  2
none_device
  4
ANSI_A_(8.50_x_11.00_Inches)
  6

 40
6.349999904632568
 41
19.04999923706055
 42
6.350006103515625
 43
19.04998779296875
 44
215.8999938964844
 45
279.3999938964844
 46
0.0
 47
0.0
 48
0.0
 49
0.0
140
0.0
141
0.0
142
1.0
143
2.584895464708373
 70
 11952
 72
     0
 73
     1
 74
     0
  7

 75
     0
147
0.3868628397755418
148
0.0
149
0.0
100
AcDbLayout
  1
Model
 70
     1
 71
     0
 10
0.0
 20
0.0
 11
12.0
 21
9.0
 12
0.0
 22
0.0
 32
0.0
 14
0.0
 24
0.0
 34
0.0
 15
0.0
 25
0.0
 35
0.0
146
0.0
 13
0.0
 23
0.0
 33
0.0
 16
1.0
 26
0.0
 36
0.0
 17
0.0
 27
1.0
 37
0.0
 76
     0
330
1F
331
94
  0
MATERIAL
  5
97
102
{ACAD_XDICTIONARY
360
12A86
102
}
102
{ACAD_REACTORS
330
72
102
}
330
72
100
AcDbMaterial
  1
ByBlock
 43
0.0393700787401575
 43
0.0
 43
0.0
 43
0.0
 43
0.0
 43
0.0393700787401575
 43
0.0
 43
0.0
 43
0.0
 43
0.0
 43
0.0393700787401575
 43
0.0
 43
0.0
 43
0.0
 43
0.0
 43
1.0
  0
MATERIAL
  5
96
102
{ACAD_XDICTIONARY
360
12A84
102
}
102
{ACAD_REACTORS
330
72
102
}
330
72
100
AcDbMaterial
  1
ByLayer
 43
0.0393700787401575
 43
0.0
 43
0.0
 43
0.0
 43
0.0
 43
0.0393700787401575
 43
0.0
 43
0.0
 43
0.0
 43
0.0
 43
0.0393700787401575
 43
0.0
 43
0.0
 43
0.0
 43
0.0
 43
1.0
  0
MATERIAL
  5
98
102
{ACAD_XDICTIONARY
360
12A88
102
}
102
{ACAD_REACTORS
330
72
102
}
330
72
100
AcDbMaterial
  1
Global
 43
0.0393700787401575
 43
0.0
 43
0.0
 43
0.0
 43
0.0
 43
0.0393700787401575
 43
0.0
 43
0.0
 43
0.0
 43
0.0
 43
0.0393700787401575
 43
0.0
 43
0.0
 43
0.0
 43
0.0
 43
1.0
  0
MLINESTYLE
  5
18
102
{ACAD_REACTORS
330
17
102
}
330
17
100
AcDbMlineStyle
  2
STANDARD
 70
     0
  3

 62
   256
 51
90.0
 52
90.0
 71
     2
 49
0.5
 62
   256
  6
BYLAYER
 49
-0.5
 62
   256
  6
BYLAYER
  0
ACDBPLACEHOLDER
  5
1F6
102
{ACAD_REACTORS
330
E
102
}
330
E
  0
ACDBPLACEHOLDER
  5
F
102
{ACAD_REACTORS
330
E
102
}
330
E
  0
TABLESTYLE
  5
87
102
{ACAD_XDICTIONARY
360
12A82
102
}
102
{ACAD_REACTORS
330
86
102
}
330
86
100
AcDbTableStyle
  3
Standard
 70
     0
 71
     0
 40
0.06
 41
0.06
280
     0
281
     0
  7
Standard
140
0.18
170
     2
 62
     0
 63
     7
283
     0
274
    -2
284
     1
 64
     0
275
    -2
285
     1
 65
     0
276
    -2
286
     1
 66
     0
277
    -2
287
     1
 67
     0
278
    -2
288
     1
 68
     0
279
    -2
289
     1
 69
     0
  7
Standard
140
0.25
170
     5
 62
     0
 63
     7
283
     0
274
    -2
284
     1
 64
     0
275
    -2
285
     1
 65
     0
276
    -2
286
     1
 66
     0
277
    -2
287
     1
 67
     0
278
    -2
288
     1
 68
     0
279
    -2
289
     1
 69
     0
  7
Standard
140
0.18
170
     5
 62
     0
 63
     7
283
     0
274
    -2
284
     1
 64
     0
275
    -2
285
     1
 65
     0
276
    -2
286
     1
 66
     0
277
    -2
287
     1
 67
     0
278
    -2
288
     1
 68
     0
279
    -2
289
     1
 69
     0
  0
VISUALSTYLE
  5
9F
102
{ACAD_REACTORS
330
99
102
}
330
99
100
AcDbVisualStyle
  2
2dWireframe
 70
     4
 71
     0
 72
     2
 73
     1
 90
        0
 40
-0.6
 41
-30.0
 62
     5
 63
     7
 74
     1
 91
        4
 64
     7
 65
   257
 75
     1
175
     1
 42
1.0
 92
        0
 66
   257
 43
1.0
 76
     1
 77
     6
 78
     2
 67
     7
 79
     5
170
     0
171
     0
290
     0
174
     0
 93
        1
 44
0.0
173
     0
291
     0
 45
0.0
1001
ACAD
1000
AcDbSavedByObjectVersion
1070
     0
  0
VISUALSTYLE
  5
A1
102
{ACAD_REACTORS
330
99
102
}
330
99
100
AcDbVisualStyle
  2
3D Hidden
 70
     6
 71
     1
 72
     2
 73
     2
 90
        0
 40
-0.6
 41
-30.0
 62
     5
 63
     7
 74
     2
 91
        2
 64
     7
 65
   257
 75
     2
175
     1
 42
40.0
 92
        0
 66
   257
 43
1.0
 76
     1
 77
     6
 78
     2
 67
     7
 79
     3
170
     0
171
     0
290
     0
174
     0
 93
        1
 44
0.0
173
     0
291
     0
 45
0.0
1001
ACAD
1000
AcDbSavedByObjectVersion
1070
     0
  0
VISUALSTYLE
  5
A0
102
{ACAD_REACTORS
330
99
102
}
330
99
100
AcDbVisualStyle
  2
3dWireframe
 70
     5
 71
     0
 72
     2
 73
     1
 90
        0
 40
-0.6
 41
-30.0
 62
     5
 63
     7
 74
     1
 91
        4
 64
     7
 65
   257
 75
     1
175
     1
 42
1.0
 92
        0
 66
   257
 43
1.0
 76
     1
 77
     6
 78
     2
 67
     7
 79
     5
170
     0
171
     0
290
     0
174
     0
 93
        1
 44
0.0
173
     0
291
     0
 45
0.0
1001
ACAD
1000
AcDbSavedByObjectVersion
1070
     0
  0
VISUALSTYLE
  5
9E
102
{ACAD_REACTORS
330
99
102
}
330
99
100
AcDbVisualStyle
  2
Basic
 70
     7
 71
     1
 72
     0
 73
     1
 90
        0
 40
-0.6
 41
-30.0
 62
     5
 63
     7
 74
     0
 91
        4
 64
     7
 65
   257
 75
     1
175
     1
 42
1.0
 92
        8
 66
     7
 43
1.0
 76
     1
 77
     6
 78
     2
 67
     7
 79
     5
170
     0
171
     0
290
     0
174
     0
 93
        1
 44
0.0
173
     0
291
     1
 45
0.0
1001
ACAD
1000
AcDbSavedByObjectVersion
1070
     0
  0
VISUALSTYLE
  5
A5
102
{ACAD_REACTORS
330
99
102
}
330
99
100
AcDbVisualStyle
  2
Brighten
 70
    12
 71
     2
 72
     2
 73
     1
 90
        0
 40
-0.6
 41
-30.0
 62
     5
 63
     7
 74
     1
 91
        4
 64
     7
 65
   257
 75
     1
175
     1
 42
1.0
 92
        8
 66
     7
 43
1.0
 76
     1
 77
     6
 78
     2
 67
     7
 79
     5
170
     0
171
     0
290
     0
174
     0
 93
        1
 44
50.0
173
     0
291
     1
 45
0.0
1001
ACAD
1000
AcDbSavedByObjectVersion
1070
     0
  0
VISUALSTYLE
  5
A9
102
{ACAD_REACTORS
330
99
102
}
330
99
100
AcDbVisualStyle
  2
ColorChange
 70
    16
 71
     2
 72
     2
 73
     3
 90
        0
 40
-0.6
 41
-30.0
 62
     5
 63
     8
 74
     1
 91
        4
 64
     7
 65
   257
 75
     1
175
     1
 42
1.0
 92
        8
 66
     8
 43
1.0
 76
     1
 77
     6
 78
     2
 67
     7
 79
     5
170
     0
171
     0
290
     0
174
     0
 93
        1
 44
0.0
173
     0
291
     1
 45
0.0
1001
ACAD
1000
AcDbSavedByObjectVersion
1070
     0
  0
VISUALSTYLE
  5
A2
102
{ACAD_REACTORS
330
99
102
}
330
99
100
AcDbVisualStyle
  2
Conceptual
 70
     9
 71
     3
 72
     2
 73
     1
 90
        0
 40
-0.6
 41
-30.0
 62
     5
 63
     7
 74
     2
 91
        2
 64
     7
 65
   257
 75
     1
175
     1
 42
40.0
 92
        8
 66
     7
 43
1.0
 76
     1
 77
     6
 78
     2
 67
     7
 79
     3
170
     0
171
     0
290
     0
174
     0
 93
        1
 44
0.0
173
     0
291
     0
 45
0.0
1001
ACAD
1000
AcDbSavedByObjectVersion
1070
     0
  0
VISUALSTYLE
  5
A4
102
{ACAD_REACTORS
330
99
102
}
330
99
100
AcDbVisualStyle
  2
Dim
 70
    11
 71
     2
 72
     2
 73
     1
 90
        0
 40
-0.6
 41
-30.0
 62
     5
 63
     7
 74
     1
 91
        4
 64
     7
 65
   257
 75
     1
175
     1
 42
1.0
 92
        8
 66
     7
 43
1.0
 76
     1
 77
     6
 78
     2
 67
     7
 79
     5
170
     0
171
     0
290
     0
174
     0
 93
        1
 44
-50.0
173
     0
291
     1
 45
0.0
1001
ACAD
1000
AcDbSavedByObjectVersion
1070
     0
  0
VISUALSTYLE
  5
A8
102
{ACAD_REACTORS
330
99
102
}
330
99
100
AcDbVisualStyle
  2
Facepattern
 70
    15
 71
     2
 72
     2
 73
     1
 90
        0
 40
-0.6
 41
-30.0
 62
     5
 63
     7
 74
     1
 91
        4
 64
     7
 65
   257
 75
     1
175
     1
 42
1.0
 92
        8
 66
     7
 43
1.0
 76
     1
 77
     6
 78
     2
 67
     7
 79
     5
170
     0
171
     0
290
     0
174
     0
 93
        1
 44
0.0
173
     0
291
     1
 45
0.0
1001
ACAD
1000
AcDbSavedByObjectVersion
1070
     0
  0
VISUALSTYLE
  5
9A
102
{ACAD_REACTORS
330
99
102
}
330
99
100
AcDbVisualStyle
  2
Flat
 70
     0
 71
     2
 72
     1
 73
     1
 90
        2
 40
-0.6
 41
30.0
 62
     5
 63
     7
 74
     0
 91
        4
 64
     7
 65
   257
 75
     1
175
     1
 42
1.0
 92
        8
 66
     7
 43
1.0
 76
     1
 77
     6
 78
     2
 67
     7
 79
     5
170
     0
171
     0
290
     0
174
     0
 93
        1
 44
0.0
173
     0
291
     1
 45
0.0
1001
ACAD
1000
AcDbSavedByObjectVersion
1070
     0
  0
VISUALSTYLE
  5
9B
102
{ACAD_REACTORS
330
99
102
}
330
99
100
AcDbVisualStyle
  2
FlatWithEdges
 70
     1
 71
     2
 72
     1
 73
     1
 90
        2
 40
-0.6
 41
30.0
 62
     5
 63
     7
 74
     1
 91
        4
 64
     7
 65
   257
 75
     1
175
     1
 42
1.0
 92
        0
 66
   257
 43
1.0
 76
     1
 77
     6
 78
     2
 67
     7
 79
     5
170
     0
171
     0
290
     0
174
     0
 93
        1
 44
0.0
173
     0
291
     1
 45
0.0
1001
ACAD
1000
AcDbSavedByObjectVersion
1070
     0
  0
VISUALSTYLE
  5
9C
102
{ACAD_REACTORS
330
99
102
}
330
99
100
AcDbVisualStyle
  2
Gouraud
 70
     2
 71
     2
 72
     2
 73
     1
 90
        2
 40
-0.6
 41
30.0
 62
     5
 63
     7
 74
     0
 91
        4
 64
     7
 65
   257
 75
     1
175
     1
 42
1.0
 92
        0
 66
     7
 43
1.0
 76
     1
 77
     6
 78
     2
 67
     7
 79
     5
170
     0
171
     0
290
     0
174
     0
 93
        1
 44
0.0
173
     0
291
     1
 45
0.0
1001
ACAD
1000
AcDbSavedByObjectVersion
1070
     0
  0
VISUALSTYLE
  5
9D
102
{ACAD_REACTORS
330
99
102
}
330
99
100
AcDbVisualStyle
  2
GouraudWithEdges
 70
     3
 71
     2
 72
     2
 73
     1
 90
        2
 40
-0.6
 41
30.0
 62
     5
 63
     7
 74
     1
 91
        4
 64
     7
 65
   257
 75
     1
175
     1
 42
1.0
 92
        0
 66
   257
 43
1.0
 76
     1
 77
     6
 78
     2
 67
     7
 79
     5
170
     0
171
     0
290
     0
174
     0
 93
        1
 44
0.0
173
     0
291
     1
 45
0.0
1001
ACAD
1000
AcDbSavedByObjectVersion
1070
     0
  0
VISUALSTYLE
  5
A7
102
{ACAD_REACTORS
330
99
102
}
330
99
100
AcDbVisualStyle
  2
Linepattern
 70
    14
 71
     2
 72
     2
 73
     1
 90
        0
 40
-0.6
 41
-30.0
 62
     5
 63
     7
 74
     1
 91
        4
 64
     7
 65
   257
 75
     7
175
     7
 42
1.0
 92
        8
 66
     7
 43
1.0
 76
     1
 77
     6
 78
     2
 67
     7
 79
     5
170
     0
171
     0
290
     0
174
     0
 93
        1
 44
0.0
173
     0
291
     1
 45
0.0
1001
ACAD
1000
AcDbSavedByObjectVersion
1070
     0
  0
VISUALSTYLE
  5
A3
102
{ACAD_REACTORS
330
99
102
}
330
99
100
AcDbVisualStyle
  2
Realistic
 70
     8
 71
     2
 72
     2
 73
     1
 90
        0
 40
-0.6
 41
-30.0
 62
     5
 63
     7
 74
     1
 91
        0
 64
     7
 65
   257
 75
     1
175
     1
 42
1.0
 92
        8
 66
     8
 43
1.0
 76
     1
 77
     6
 78
     2
 67
     7
 79
     5
170
     0
171
     0
290
     0
174
     0
 93
       13
 44
0.0
173
     0
291
     0
 45
0.0
1001
ACAD
1000
AcDbSavedByObjectVersion
1070
     0
  0
VISUALSTYLE
  5
A6
102
{ACAD_REACTORS
330
99
102
}
330
99
100
AcDbVisualStyle
  2
Thicken
 70
    13
 71
     2
 72
     2
 73
     1
 90
        0
 40
-0.6
 41
-30.0
 62
     5
 63
     7
 74
     1
 91
        4
 64
     7
 65
   257
 75
     1
175
     1
 42
1.0
 92
       12
 66
     7
 43
1.0
 76
     1
 77
     6
 78
     2
 67
     7
 79
     5
170
     0
171
     0
290
     0
174
     0
 93
        1
 44
0.0
173
     0
291
     1
 45
0.0
1001
ACAD
1000
AcDbSavedByObjectVersion
1070
     0
  0
DICTIONARY
  5
207
102
{ACAD_REACTORS
330
206
102
}
330
206
100
AcDbDictionary
280
     1
281
     1
  3
DefaultStandard
360
113AD
  3
Standards
360
208
  0
DICTIONARYVAR
  5
89
102
{ACAD_REACTORS
330
66
102
}
330
66
100
DictionaryVariables
280
     0
  1
STANDARD
  0
DICTIONARYVAR
  5
67
102
{ACAD_REACTORS
330
66
102
}
330
66
100
DictionaryVariables
280
     0
  1
2
  0
DICTIONARYVAR
  5
6B
102
{ACAD_REACTORS
330
66
102
}
330
66
100
DictionaryVariables
280
     0
  1
1
  0
DICTIONARYVAR
  5
5F5
102
{ACAD_REACTORS
330
66
102
}
330
66
100
DictionaryVariables
280
     0
  1
0
  0
DICTIONARYVAR
  5
5F4
102
{ACAD_REACTORS
330
66
102
}
330
66
100
DictionaryVariables
280
     0
  1
127
  0
DICTIONARY
  5
12A7E
330
59
100
AcDbDictionary
280
     1
281
     1
  3
ACAD_XREC_ROUNDTRIP
360
12A7F
  0
DICTIONARY
  5
12A80
330
5E
100
AcDbDictionary
280
     1
281
     1
  3
ACAD_XREC_ROUNDTRIP
360
12A81
  0
DICTIONARY
  5
12A7C
330
22
100
AcDbDictionary
280
     1
281
     1
  3
ACAD_XREC_ROUNDTRIP
360
12A7D
  0
DICTIONARY
  5
12A86
330
97
100
AcDbDictionary
280
     1
281
     1
  3
ACAD_XREC_ROUNDTRIP
360
12A87
  0
DICTIONARY
  5
12A84
330
96
100
AcDbDictionary
280
     1
281
     1
  3
ACAD_XREC_ROUNDTRIP
360
12A85
  0
DICTIONARY
  5
12A88
330
98
100
AcDbDictionary
280
     1
281
     1
  3
ACAD_XREC_ROUNDTRIP
360
12A89
  0
DICTIONARY
  5
12A82
330
87
100
AcDbDictionary
280
     1
281
     1
  3
ACAD_XREC_ROUNDTRIP
360
12A83
  0
XRECORD
  5
113AD
102
{ACAD_REACTORS
330
207
102
}
330
207
100
AcDbXrecord
280
     1
1000
AIA Version 3
  0
BINRECORD
  5
208
102
{ACAD_REACTORS
330
207
102
}
330
207
100
AcAecBinRecord
 90
        0
 91
    19403
 70
     0
310
0100FFFEFF0D4100490041002000560065007200730069006F006E00200033000500FFFF01001C004163416563556B4C6179657244657363726970746976654669656C64FFFEFF154400690073006300690070006C0069006E0065002000440065007300690067006E00610074006F0072000102000000007B333637354541
310
46100100002100000070BA406CD0EA76040B00FFFEFF001500FFFEFF01440002000000FFFEFF07500072006F0063006500730073000E00FFFEFF01440002000000FFFEFF12500072006F0063006500730073002000440065006D006F006C006900740069006F006E00000000000000FFFEFF01560002000000FFFEFF0E5000
310
72006F0063006500730073002000560061006300750075006D00000000000000FFFEFF01450002000000FFFEFF12500072006F006300650073007300200045006C0065006300740072006900630061006C00000000000000FFFEFF01570002000000FFFEFF0E500072006F0063006500730073002000570061007400650072
310
007300000000000000FFFEFF01580002000000FFFEFF0F500072006F00630065007300730020004500780068006100750073007400000000000000FFFEFF01470002000000FFFEFF0D500072006F006300650073007300200047006100730065007300000000000000FFFEFF014F0002000000FFFEFF0B500072006F006300
310
65007300730020004F0069006C00000000000000FFFEFF01500002000000FFFEFF0E500072006F006300650073007300200050006900700069006E006700000000000000FFFEFF01510002000000FFFEFF11500072006F0063006500730073002000450071007500690070006D0065006E007400000000000000FFFEFF0152
310
0002000000FFFEFF19500072006F006300650073007300200044007200610069006E0073002000260020005200650063006C00610069006D007300000000000000FFFEFF01410002000000FFFEFF0C500072006F00630065007300730020004100690072007300000000000000FFFEFF01530002000000FFFEFF0C50007200
310
6F00630065007300730020005300690074006500000000000000FFFEFF01540002000000FFFEFF18500072006F006300650073007300200045006E0074007200610069006E0065006400200053006F006C00690064007300000000000000FFFEFF01430002000000FFFEFF11500072006F0063006500730073002000430068
310
0065006D006900630061006C00730000000000000000000000FFFEFF01560002000000FFFEFF1053007500720076006500790020002F0020004D0061007000700069006E0067000500FFFEFF01460002000000FFFEFF0C4600690065006C0064002000530075007200760065007900000000000000FFFEFF01490002000000
310
FFFEFF0E4400690067006900740061006C002000530075007200760065007900000000000000FFFEFF014A0002000000FFFEFF1F53007500720076006500790020002F0020004D0061007000700069006E006700200028005500730065007200200044006500660069006E00650064002900000000000000FFFEFF014B0002
310
000000FFFEFF1F53007500720076006500790020002F0020004D0061007000700069006E006700200028005500730065007200200044006500660069006E00650064002900000000000000FFFEFF01410002000000FFFEFF0D410065007200690061006C00200053007500720076006500790000000000000000000000FFFE
310
FF01450002000000FFFEFF0A45006C0065006300740072006900630061006C000900FFFEFF01440002000000FFFEFF1545006C0065006300740072006900630061006C002000440065006D006F006C006900740069006F006E00000000000000FFFEFF01590002000000FFFEFF1C45006C0065006300740072006900630061
310
006C00200041007500780069006C0069006100720079002000530079007300740065006D007300000000000000FFFEFF01490002000000FFFEFF1A45006C0065006300740072006900630061006C00200049006E0073007400720075006D0065006E0074006100740069006F006E00000000000000FFFEFF014A0002000000
310
FFFEFF1945006C0065006300740072006900630061006C00200028005500730065007200200044006500660069006E00650064002900000000000000FFFEFF014B0002000000FFFEFF1945006C0065006300740072006900630061006C00200028005500730065007200200044006500660069006E00650064002900000000
310
000000FFFEFF014C0002000000FFFEFF1345006C0065006300740072006900630061006C0020004C00690067006800740069006E006700000000000000FFFEFF01500002000000FFFEFF1045006C0065006300740072006900630061006C00200050006F00770065007200000000000000FFFEFF01530002000000FFFEFF0F
310
45006C0065006300740072006900630061006C0020005300690074006500000000000000FFFEFF01540002000000FFFEFF1D45006C0065006300740072006900630061006C002000540065006C00650063006F006D006D0075006E00690063006100740069006F006E00730000000000000000000000FFFEFF015700020000
310
00FFFEFF0B43006900760069006C00200057006F0072006B0073000200FFFEFF014A0002000000FFFEFF1A43006900760069006C00200057006F0072006B007300200028005500730065007200200044006500660069006E00650064002900000000000000FFFEFF014B0002000000FFFEFF1A43006900760069006C002000
310
57006F0072006B007300200028005500730065007200200044006500660069006E0065006400290000000000000000000000FFFEFF01460002000000FFFEFF0F46006900720065002000500072006F00740065006300740069006F006E000400FFFEFF014A0002000000FFFEFF134600690072006500200028005500730065
310
007200200044006500660069006E00650064002900000000000000FFFEFF014B0002000000FFFEFF134600690072006500200028005500730065007200200044006500660069006E00650064002900000000000000FFFEFF01410002000000FFFEFF184600690072006500200044006500740065006300740069006F006E00
310
200061006E006400200041006C00610072006D00000000000000FFFEFF01530002000000FFFEFF10460069007200650020005300750070007000720065007300730069006F006E0000000000000000000000FFFEFF01470002000000FFFEFF07470065006E006500720061006C000500FFFEFF01490002000000FFFEFF1347
310
0065006E006500720061006C00200049006E0066006F0072006D006100740069006F006E00000000000000FFFEFF014A0002000000FFFEFF16470065006E006500720061006C00200028005500730065007200200044006500660069006E00650064002900000000000000FFFEFF014B0002000000FFFEFF16470065006E00
310
6500720061006C00200028005500730065007200200044006500660069006E00650064002900000000000000FFFEFF01520002000000FFFEFF10470065006E006500720061006C0020005200650073006F007500720063006500000000000000FFFEFF01430002000000FFFEFF13470065006E006500720061006C00200043
310
006F006E0074007200610063007400750061006C0000000000000000000000FFFEFF01580002000000FFFEFF114F00740068006500720020004400690073006300690070006C0069006E00650073000200FFFEFF014A0002000000FFFEFF204F00740068006500720020004400690073006300690070006C0069006E006500
310
7300200028005500730065007200200044006500660069006E00650064002900000000000000FFFEFF014B0002000000FFFEFF204F00740068006500720020004400690073006300690070006C0069006E0065007300200028005500730065007200200044006500660069006E0065006400290000000000000000000000FF
310
FEFF01480002000000FFFEFF13480061007A006100720064006F007500730020004D006100740065007200690061006C0073000700FFFEFF014A0002000000FFFEFF22480061007A006100720064006F007500730020004D006100740065007200690061006C00730020002800550073006500720020004400650066006900
310
6E00650064002900000000000000FFFEFF014B0002000000FFFEFF22480061007A006100720064006F007500730020004D006100740065007200690061006C007300200028005500730065007200200044006500660069006E00650064002900000000000000FFFEFF014C0002000000FFFEFF044C00650061006400000000
310
000000FFFEFF01500002000000FFFEFF03500043004200000000000000FFFEFF01520002000000FFFEFF0C5200650066007200690067006500720061006E0074007300000000000000FFFEFF01410002000000FFFEFF084100730062006500730074006F007300000000000000FFFEFF01430002000000FFFEFF0943006800
310
65006D006900630061006C00730000000000000000000000FFFEFF01490002000000FFFEFF0949006E0074006500720069006F00720073000600FFFEFF01440002000000FFFEFF1349006E0074006500720069006F0072002000440065006D006F006C006900740069006F006E00000000000000FFFEFF01460002000000FF
310
FEFF1149006E0074006500720069006F0072002000460069006E0069007300680065007300000000000000FFFEFF01470002000000FFFEFF1249006E0074006500720069006F0072007300200047007200610070006800690063007300000000000000FFFEFF014A0002000000FFFEFF1849006E0074006500720069006F00
310
72007300200028005500730065007200200044006500660069006E00650064002900000000000000FFFEFF014B0002000000FFFEFF1849006E0074006500720069006F0072007300200028005500730065007200200044006500660069006E00650064002900000000000000FFFEFF014E0002000000FFFEFF0F49006E0074
310
006500720069006F0072002000440065007300690067006E0000000000000000000000FFFEFF015A0002000000FFFEFF1A43006F006E00740072006100630074006F00720020002F002000530068006F0070002000440072006100770069006E00670073000200FFFEFF014A0002000000FFFEFF2943006F006E0074007200
310
6100630074006F00720020002F002000530068006F0070002000440072006100770069006E0067007300200028005500730065007200200044006500660069006E00650064002900000000000000FFFEFF014B0002000000FFFEFF2943006F006E00740072006100630074006F00720020002F002000530068006F00700020
310
00440072006100770069006E0067007300200028005500730065007200200044006500660069006E0065006400290000000000000000000000FFFEFF014C0002000000FFFEFF094C0061006E006400730063006100700065000500FFFEFF01440002000000FFFEFF144C0061006E0064007300630061007000650020004400
310
65006D006F006C006900740069006F006E00000000000000FFFEFF01490002000000FFFEFF144C0061006E006400730063006100700065002000490072007200690067006100740069006F006E00000000000000FFFEFF014A0002000000FFFEFF184C0061006E006400730063006100700065002000280055007300650072
310
00200044006500660069006E00650064002900000000000000FFFEFF014B0002000000FFFEFF184C0061006E00640073006300610070006500200028005500730065007200200044006500660069006E00650064002900000000000000FFFEFF01500002000000FFFEFF124C0061006E006400730063006100700065002000
310
50006C0061006E00740069006E00670000000000000000000000FFFEFF014D0002000000FFFEFF0A4D0065006300680061006E006900630061006C000700FFFEFF01440002000000FFFEFF154D0065006300680061006E006900630061006C002000440065006D006F006C006900740069006F006E00000000000000FFFEFF
310
01480002000000FFFEFF0F4D0065006300680061006E006900630061006C0020004800560041004300000000000000FFFEFF01490002000000FFFEFF1A4D0065006300680061006E006900630061006C00200049006E0073007400720075006D0065006E0074006100740069006F006E00000000000000FFFEFF014A000200
310
0000FFFEFF194D0065006300680061006E006900630061006C00200028005500730065007200200044006500660069006E00650064002900000000000000FFFEFF014B0002000000FFFEFF194D0065006300680061006E006900630061006C00200028005500730065007200200044006500660069006E0065006400290000
310
0000000000FFFEFF01500002000000FFFEFF114D0065006300680061006E006900630061006C00200050006900700069006E006700000000000000FFFEFF01530002000000FFFEFF0F4D0065006300680061006E006900630061006C002000530069007400650000000000000000000000FFFEFF014F0002000000FFFEFF0A
310
4F007000650072006100740069006F006E0073000200FFFEFF014A0002000000FFFEFF194F007000650072006100740069006F006E007300200028005500730065007200200044006500660069006E00650064002900000000000000FFFEFF014B0002000000FFFEFF194F007000650072006100740069006F006E00730020
310
0028005500730065007200200044006500660069006E0065006400290000000000000000000000FFFEFF01500002000000FFFEFF0850006C0075006D00620069006E0067000600FFFEFF01440002000000FFFEFF1350006C0075006D00620069006E0067002000440065006D006F006C006900740069006F006E0000000000
310
0000FFFEFF014A0002000000FFFEFF1750006C0075006D00620069006E006700200028005500730065007200200044006500660069006E00650064002900000000000000FFFEFF014B0002000000FFFEFF1750006C0075006D00620069006E006700200028005500730065007200200044006500660069006E006500640029
310
00000000000000FFFEFF01500002000000FFFEFF0F50006C0075006D00620069006E006700200050006900700069006E006700000000000000FFFEFF01510002000000FFFEFF1250006C0075006D00620069006E0067002000450071007500690070006D0065006E007400000000000000FFFEFF01530002000000FFFEFF0D
310
50006C0075006D00620069006E0067002000530069007400650000000000000000000000FFFEFF01510002000000FFFEFF09450071007500690070006D0065006E0074001100FFFEFF01440002000000FFFEFF1344006500740065006E00740069006F006E002000450071007500690070006D0065006E0074000000000000
310
00FFFEFF01560002000000FFFEFF1C56006900640065006F002F00500068006F0074006F0067007200610070006800690063002000450071007500690070006D0065006E007400000000000000FFFEFF01450002000000FFFEFF1545006400750063006100740069006F006E0061006C002000450071007500690070006D00
310
65006E007400000000000000FFFEFF01460002000000FFFEFF1646006F006F006400200053006500720076006900630065002000450071007500690070006D0065006E007400000000000000FFFEFF01590002000000FFFEFF12530065006300750072006900740079002000450071007500690070006D0065006E00740000
310
0000000000FFFEFF01480002000000FFFEFF1248006F00730070006900740061006C002000450071007500690070006D0065006E007400000000000000FFFEFF014A0002000000FFFEFF18450071007500690070006D0065006E007400200028005500730065007200200044006500660069006E0065006400290000000000
310
0000FFFEFF014B0002000000FFFEFF18450071007500690070006D0065006E007400200028005500730065007200200044006500660069006E00650064002900000000000000FFFEFF014C0002000000FFFEFF144C00610062006F007200610074006F00720079002000450071007500690070006D0065006E007400000000
310
000000FFFEFF014D0002000000FFFEFF154D00610069006E00740065006E0061006E00630065002000450071007500690070006D0065006E007400000000000000FFFEFF01500002000000FFFEFF155000610072006B0069006E00670020004C006F0074002000450071007500690070006D0065006E007400000000000000
310
FFFEFF01520002000000FFFEFF10520065007400610069006C002000450071007500690070006D0065006E007400000000000000FFFEFF01410002000000FFFEFF124100740068006C0065007400690063002000450071007500690070006D0065006E007400000000000000FFFEFF01530002000000FFFEFF0E5300690074
310
0065002000450071007500690070006D0065006E007400000000000000FFFEFF01420002000000FFFEFF0E420061006E006B002000450071007500690070006D0065006E007400000000000000FFFEFF01540002000000FFFEFF145400680065006100740072006900630061006C002000450071007500690070006D006500
310
6E007400000000000000FFFEFF01430002000000FFFEFF16440072007900200043006C00650061006E0069006E0067002000450071007500690070006D0065006E00740000000000000000000000FFFEFF01410002000000FFFEFF0D4100720063006800690074006500630074007500720061006C000A00FFFEFF01440002
310
000000FFFEFF184100720063006800690074006500630074007500720061006C002000440065006D006F006C006900740069006F006E00000000000000FFFEFF01450002000000FFFEFF164100720063006800690074006500630074007500720061006C00200045006C0065006D0065006E0074007300000000000000FFFE
310
FF01460002000000FFFEFF164100720063006800690074006500630074007500720061006C002000460069006E0069007300680065007300000000000000FFFEFF01470002000000FFFEFF164100720063006800690074006500630074007500720061006C00200047007200610070006800690063007300000000000000FF
310
FEFF01490002000000FFFEFF164100720063006800690074006500630074007500720061006C00200049006E0074006500720069006F007200000000000000FFFEFF014A0002000000FFFEFF1C4100720063006800690074006500630074007500720061006C00200028005500730065007200200044006500660069006E00
310
650064002900000000000000FFFEFF014B0002000000FFFEFF1C4100720063006800690074006500630074007500720061006C00200028005500730065007200200044006500660069006E00650064002900000000000000FFFEFF01500002000000FFFEFF144100720063006800690074006500630074007500720061006C
310
00200050006100760069006E006700000000000000FFFEFF01530002000000FFFEFF124100720063006800690074006500630074007500720061006C0020005300690074006500000000000000FFFEFF01540002000000FFFEFF1C4100720063006800690074006500630074007500720061006C0020005400720061006E00
310
730070006F00720074006100740069006F006E0000000000000001000000FFFEFF01520002000000FFFEFF085200650073006F0075007200630065000700FFFEFF01450002000000FFFEFF135200650073006F007500720063006500200045006C0065006300740072006900630061006C00000000000000FFFEFF014A0002
310
000000FFFEFF175200650073006F007500720063006500200028005500730065007200200044006500660069006E00650064002900000000000000FFFEFF014B0002000000FFFEFF175200650073006F007500720063006500200028005500730065007200200044006500660069006E00650064002900000000000000FFFE
310
FF014D0002000000FFFEFF135200650073006F00750072006300650020004D0065006300680061006E006900630061006C00000000000000FFFEFF01410002000000FFFEFF165200650073006F00750072006300650020004100720063006800690074006500630074007500720061006C00000000000000FFFEFF01530002
310
000000FFFEFF135200650073006F00750072006300650020005300740072007500630074007500720061006C00000000000000FFFEFF01430002000000FFFEFF0E5200650073006F007500720063006500200043006900760069006C0000000000000000000000FFFEFF01420002000000FFFEFF0C470065006F0074006500
310
630068006E006900630061006C000200FFFEFF014A0002000000FFFEFF1B470065006F0074006500630068006E006900630061006C00200028005500730065007200200044006500660069006E00650064002900000000000000FFFEFF014B0002000000FFFEFF1B470065006F0074006500630068006E006900630061006C
310
00200028005500730065007200200044006500660069006E0065006400290000000000000000000000FFFEFF01530002000000FFFEFF0A5300740072007500630074007500720061006C000600FFFEFF01440002000000FFFEFF155300740072007500630074007500720061006C002000440065006D006F006C0069007400
310
69006F006E00000000000000FFFEFF01460002000000FFFEFF125300740072007500630074007500720061006C0020004600720061006D0069006E006700000000000000FFFEFF014A0002000000FFFEFF195300740072007500630074007500720061006C00200028005500730065007200200044006500660069006E0065
310
0064002900000000000000FFFEFF014B0002000000FFFEFF195300740072007500630074007500720061006C00200028005500730065007200200044006500660069006E00650064002900000000000000FFFEFF01530002000000FFFEFF0F5300740072007500630074007500720061006C00200053006900740065000000
310
00000000FFFEFF01420002000000FFFEFF175300740072007500630074007500720061006C00200053007500620073007400720075006300740075007200650000000000000000000000FFFEFF01430002000000FFFEFF0543006900760069006C000900FFFEFF01440002000000FFFEFF1043006900760069006C00200044
310
0065006D006F006C006900740069006F006E00000000000000FFFEFF01550002000000FFFEFF0F43006900760069006C0020005500740069006C0069007400690065007300000000000000FFFEFF01470002000000FFFEFF0D43006900760069006C002000470072006100640069006E006700000000000000FFFEFF014900
310
02000000FFFEFF1243006900760069006C00200049006D00700072006F00760065006D0065006E0074007300000000000000FFFEFF014A0002000000FFFEFF1443006900760069006C00200028005500730065007200200044006500660069006E00650064002900000000000000FFFEFF014B0002000000FFFEFF14430069
310
00760069006C00200028005500730065007200200044006500660069006E00650064002900000000000000FFFEFF01500002000000FFFEFF0C43006900760069006C00200050006100760069006E006700000000000000FFFEFF01530002000000FFFEFF0A43006900760069006C0020005300690074006500000000000000
310
FFFEFF01540002000000FFFEFF1443006900760069006C0020005400720061006E00730070006F00720074006100740069006F006E0000000000000000000000FFFEFF01540002000000FFFEFF12540065006C00650063006F006D006D0075006E00690063006100740069006F006E0073000900FFFEFF01590002000000FF
310
FEFF0853006500630075007200690074007900000000000000FFFEFF01490002000000FFFEFF0849006E0074006500720063006F006D00000000000000FFFEFF014A0002000000FFFEFF21540065006C00650063006F006D006D0075006E00690063006100740069006F006E00730020002800550073006500720020004400
310
6500660069006E00650064002900000000000000FFFEFF014B0002000000FFFEFF21540065006C00650063006F006D006D0075006E00690063006100740069006F006E007300200028005500730065007200200044006500660069006E00650064002900000000000000FFFEFF014D0002000000FFFEFF0A4D006F006E0069
310
0074006F00720069006E006700000000000000FFFEFF014E0002000000FFFEFF0D440061007400610020004E006500740077006F0072006B007300000000000000FFFEFF01410002000000FFFEFF0E41007500640069006F0020002F002000560069007300750061006C00000000000000FFFEFF01540002000000FFFEFF09
310
540065006C006500700068006F006E006500000000000000FFFEFF01430002000000FFFEFF1143006C006F0063006B00200061006E0064002000500072006F006700720061006D00000000000000000000000180FFFEFF054D0061006A006F0072000300000000000000000000000000000000000000000000000000000000
310
000000FFFEFF002300FFFEFF052D0046006C006F00720002000000FFFEFF0546006C006F006F007200000000000000FFFEFF052D004500710070006D0002000000FFFEFF09450071007500690070006D0065006E007400000000000000FFFEFF052D00530069007400650002000000FFFEFF09530069007400650020007000
310
6C0061006E00000000000000FFFEFF052D0050006C0061006E0002000000FFFEFF154B0065007900200070006C0061006E002000280066006C006F006F007200200070006C0061006E002900000000000000FFFEFF052D004400650074006C0002000000FFFEFF06440065007400610069006C00000000000000FFFEFF052D
310
0054006F0070006F0002000000FFFEFF0A54006F0070006F00670072006100700068007900000000000000FFFEFF052D004300740072006C0002000000FFFEFF0E43006F006E00740072006F006C00200050006F0069006E0074007300000000000000FFFEFF052D004600750072006E0002000000FFFEFF0B460075007200
310
6E0069007300680069006E0067007300000000000000FFFEFF052D0053006C006100620002000000FFFEFF0553006C00610062007300000000000000FFFEFF052D0050006F006C00790002000000FFFEFF0850006F006C00790067006F006E007300000000000000FFFEFF052D0043006F006D006D0002000000FFFEFF1254
310
0065006C00650063006F006D006D0075006E00690063006100740069006F006E007300000000000000FFFEFF052D00570061006C006C0002000000FFFEFF05570061006C006C007300000000000000FFFEFF052D0047006C0061007A0002000000FFFEFF0747006C0061007A0069006E006700000000000000FFFEFF052D00
310
410072006500610002000000FFFEFF044100720065006100000000000000FFFEFF052D0043006F006400650002000000FFFEFF1443006F0064006500200063006F006D0070006C00690061006E0063006500200070006C0061006E00000000000000FFFEFF052D005300740072006D0002000000FFFEFF0844007200610069
310
006E00610067006500000000000000FFFEFF052D0044006F006F00720002000000FFFEFF0544006F006F0072007300000000000000FFFEFF052D0041006E006E006F0002000000FFFEFF0A41006E006E006F0074006100740069006F006E00000000000000FFFEFF052D004200650061006D0002000000FFFEFF0542006500
310
61006D007300000000000000FFFEFF052D004C0069007400650002000000FFFEFF114C00690067006800740069006E006700200066006900780074007500720065007300000000000000FFFEFF052D00480056004100430002000000FFFEFF044800560041004300000000000000FFFEFF052D004100630063007300020000
310
00FFFEFF0B410063006300650073007300200070006C0061006E00000000000000FFFEFF052D0043006F006C00730002000000FFFEFF0743006F006C0075006D006E007300000000000000FFFEFF052D0043006C006E00670002000000FFFEFF074300650069006C0069006E006700000000000000FFFEFF052D0045007600
310
6100630002000000FFFEFF0F450076006100630075006100740069006F006E00200070006C0061006E00000000000000FFFEFF052D0043006F006E00760002000000FFFEFF1143006F006E0076006500790069006E0067002000730079007300740065006D007300000000000000FFFEFF052D005300650063007400020000
310
00FFFEFF07530065006300740069006F006E00000000000000FFFEFF052D00500072006F00700002000000FFFEFF08500072006F0070006500720074007900000000000000FFFEFF052D0052006F006F00660002000000FFFEFF0452006F006F006600000000000000FFFEFF052D0045006C006500630002000000FFFEFF0A
310
45006C0065006300740072006900630061006C00000000000000FFFEFF052D00470072006900640002000000FFFEFF0A470072006900640020006C0069006E0065007300000000000000FFFEFF052D00540069006E006E0002000000FFFEFF1E54007200690061006E00670075006C00610074006500640020006900720072
310
006500670075006C006100720020006E006500740077006F0072006B00000000000000FFFEFF052D00500072006F00740002000000FFFEFF1646006900720065002000700072006F00740065006300740069006F006E002000730079007300740065006D00000000000000FFFEFF052D00460069007200650002000000FFFE
310
FF1446006900720065002000700072006F00740065006300740069006F006E00200070006C0061006E00000000000000FFFEFF052D0045006C006500760002000000FFFEFF0945006C00650076006100740069006F006E000000000000000180FFFEFF074D0069006E006F00720020003100040000000000000000F00E7704
310
00000000000000000000000000000000F00000FFFEFF006A00FFFEFF052D00410062006F00760002000000FFFEFF0E45006C0065006D0065006E00740073002000610062006F0076006500000000000000FFFEFF052D005400610062006C0002000000FFFEFF0B440061007400610020007400610062006C00650073000000
310
00000000FFFEFF052D00420064007200790002000000FFFEFF0842006F0075006E006400610072007900000000000000FFFEFF052D004500710070006D0002000000FFFEFF09450071007500690070006D0065006E007400000000000000FFFEFF052D0043006E007400720002000000FFFEFF0A430065006E007400650072
310
006C0069006E006500000000000000FFFEFF052D0057006B007300660002000000FFFEFF1E530079007300740065006D00200077006F0072006B0020007300750072006600610063006500200063006F006D0070006F006E0065006E0074007300000000000000FFFEFF052D00420072006E00670002000000FFFEFF1A4200
310
65006100720069006E0067007300200026002000640069007300740061006E006300650020006C006100620065006C007300000000000000FFFEFF052D00530077006300680002000000FFFEFF0853007700690074006300680065007300000000000000FFFEFF052D005400680069006E0002000000FFFEFF195400680069
310
006E0020007700650069006700680074002000670072006100700068006900630020006C0069006E0065007300000000000000FFFEFF052D00520061006900730002000000FFFEFF06520061006900730065006400000000000000FFFEFF052D004F00700065006E0002000000FFFEFF084F00700065006E0069006E006700
310
7300000000000000FFFEFF052D004E0070006C00740002000000FFFEFF204E006F006E002D0070006C006F007400740069006E00670020006700720061007000680069006300200069006E0066006F0072006D006100740069006F006E00000000000000FFFEFF052D00500072006F00660002000000FFFEFF08500072006F
310
00660069006C0065007300000000000000FFFEFF052D005200650066006C0002000000FFFEFF0E5200650066006C0065006300740065006400200050006C0061006E00000000000000FFFEFF052D00460069006E00650002000000FFFEFF19460069006E006500200077006500690067006800740020006700720061007000
310
68006900630020006C0069006E0065007300000000000000FFFEFF052D004100700070006C0002000000FFFEFF0A4100700070006C00690061006E00630065007300000000000000FFFEFF052D00440069006D00730002000000FFFEFF0A440069006D0065006E00730069006F006E007300000000000000FFFEFF052D0050
310
006F007700720002000000FFFEFF0550006F00770065007200000000000000FFFEFF052D0053006C006100620002000000FFFEFF0553006C00610062007300000000000000FFFEFF052D0043006F006E006E0002000000FFFEFF0B43006F006E006E0065006300740069006F006E007300000000000000FFFEFF052D005700
310
61006C006C0002000000FFFEFF05570061006C006C007300000000000000FFFEFF052D004100730073006D0002000000FFFEFF0A41007300730065006D0062006C00690065007300000000000000FFFEFF052D005600680063006C0002000000FFFEFF08560065006800690063006C0065007300000000000000FFFEFF052D
310
0043006F006D006D0002000000FFFEFF1A540065006C006500700068006F006E0065002C00200063006F006D006D0075006E00690063006100740069006F006E0073002000000000000000FFFEFF052D00460072006500650002000000FFFEFF0C46007200650065007300740061006E00640069006E006700000000000000
310
FFFEFF052D00530079006D00620002000000FFFEFF07530079006D0062006F006C007300000000000000FFFEFF052D00520064006D00650002000000FFFEFF1B52006500610064002D006D00650020006C006100790065007200200028006E006F007400200070006C006F0074007400650064002900000000000000FFFEFF
310
052D0053006C006300650002000000FFFEFF0653006C006900630065007300000000000000FFFEFF052D00460061007300630002000000FFFEFF074600610073006300690061007300000000000000FFFEFF052D00460069006C00650002000000FFFEFF0D460069006C006500200063006100620069006E00650074007300
310
000000000000FFFEFF052D004D00610073006B0002000000FFFEFF1241004400540020004D00610073006B0069006E00670020004F0062006A00650063007400000000000000FFFEFF052D004A0061006D00620002000000FFFEFF1544006F006F007200200061006E0064002000770069006E0064006F00770020006A0061
310
006D0062007300000000000000FFFEFF052D005300690067006E0002000000FFFEFF055300690067006E007300000000000000FFFEFF052D0046006E007300680002000000FFFEFF08460069006E0069007300680065007300000000000000FFFEFF052D00530063006800640002000000FFFEFF0953006300680065006400
310
75006C0065007300000000000000FFFEFF052D00500072006800740002000000FFFEFF0E5000610072007400690061006C002000680065006900670068007400000000000000FFFEFF052D00470072007000730002000000FFFEFF06470072006F00750070007300000000000000FFFEFF052D00540068006C006400020000
310
00FFFEFF0A5400680072006500730068006F006C0064007300000000000000FFFEFF052D005300630072006E0002000000FFFEFF14530063007200650065006E006500640020004200610063006B00670072006F0075006E0064007300000000000000FFFEFF052D0043006F006D00700002000000FFFEFF1349006E007400
310
650072006E0061006C00200063006F006D0070006F006E0065006E0074007300000000000000FFFEFF052D005400690074006C0002000000FFFEFF18440072006100770069006E00670020006F0072002000640065007400610069006C0020007400690074006C0065007300000000000000FFFEFF052D0054006500780074
310
0002000000FFFEFF045400650078007400000000000000FFFEFF052D004D00610072006B0002000000FFFEFF1D4D00610072006B006500720073002C00200062007200650061006B0020006D00610072006B0073002C0020006C00650061006400650072007300000000000000FFFEFF052D00460075006C006C0002000000
310
FFFEFF0B460075006C006C002D00680065006900670068007400000000000000FFFEFF052D00450076007400720002000000FFFEFF1B45006C0065007600610074006F00720020006300610072007300200061006E0064002000650071007500690070006D0065006E007400000000000000FFFEFF052D0053007000630065
310
0002000000FFFEFF0553007000610063006500000000000000FFFEFF052D00530075007300700002000000FFFEFF12530075007300700065006E00640065006400200065006C0065006D0065006E0074007300000000000000FFFEFF052D00540065006500730002000000FFFEFF094D00610069006E002000740065006500
310
7300000000000000FFFEFF052D00460069007800740002000000FFFEFF1170006C0075006D00620069006E006700200066006900780074007500720065007300000000000000FFFEFF052D00520065006600720002000000FFFEFF195200650066006500720065006E00630065002C002000650078007400650072006E0061
310
006C002000660069006C0065007300000000000000FFFEFF052D004C00610062006C0002000000FFFEFF064C006100620065006C007300000000000000FFFEFF052D004C0069007400650002000000FFFEFF084C00690067006800740069006E006700000000000000FFFEFF052D00480065007600790002000000FFFEFF1A
310
4800650061007600790020007700650069006700680074002000670072006100700068006900630020006C0069006E0065007300000000000000FFFEFF052D00480065006100640002000000FFFEFF1744006F006F007200200061006E0064002000770069006E0064006F0077002000680065006100640065007200730000
310
0000000000FFFEFF052D004C00650067006E0002000000FFFEFF144C006500670065006E00640073002C002000530079006D0062006F006C0020006B00650079007300000000000000FFFEFF052D004B00650079006E0002000000FFFEFF084B00650079006E006F00740065007300000000000000FFFEFF052D0046006900
310
7800640002000000FFFEFF0F460069007800650064002000650071007500690070006D0065006E007400000000000000FFFEFF052D004C00650076006C0002000000FFFEFF274C006500760065006C0020006300680061006E006700650073002C002000720061006D00700073002C00200070006900740073002C00200064
310
0065007000720065007300730069006F006E007300000000000000FFFEFF052D004D00650064006D0002000000FFFEFF1B4D0065006400690075006D0020007700650069006700680074002000670072006100700068006900630020006C0069006E0065007300000000000000FFFEFF052D0042006C006F00770002000000
310
FFFEFF0E45006C0065006D0065006E00740073002000620065006C006F007700000000000000FFFEFF052D00410063006300730002000000FFFEFF06410063006300650073007300000000000000FFFEFF052D004F0063006300700002000000FFFEFF1A4F00630063007500700061006E00740020006F007200200065006D
310
0070006C006F0079006500650020006E0061006D0065007300000000000000FFFEFF052D00430061007300650002000000FFFEFF08430061007300650077006F0072006B00000000000000FFFEFF052D00520065007600730002000000FFFEFF095200650076006900730069006F006E007300000000000000FFFEFF052D00
310
420072006300650002000000FFFEFF06420072006100630065007300000000000000FFFEFF052D00480069006400650002000000FFFEFF0E480069006400640065006E0020006F0062006A006500630074007300000000000000FFFEFF052D0043006C006E00670002000000FFFEFF074300650069006C0069006E00670000
310
0000000000FFFEFF052D005500740069006C0002000000FFFEFF095500740069006C0069007400690065007300000000000000FFFEFF052D00500061007400740002000000FFFEFF19540065007800740075007200650020006F00720020006800610074006300680020007000610074007400650072006E00730000000000
310
0000FFFEFF052D00430061007600690002000000FFFEFF06430061007600690074007900000000000000FFFEFF052D0050006C006E00740002000000FFFEFF0650006C0061006E0074007300000000000000FFFEFF052D00530074007200730002000000FFFEFF215300740061006900720020007400720065006100640073
310
002C00200065007300630061006C00610074006F00720073002C0020006C00610064006400650072007300000000000000FFFEFF052D00520065007600630002000000FFFEFF0F5200650076006900730069006F006E00200063006C006F00750064007300000000000000FFFEFF052D004D006F007600650002000000FFFE
310
FF124D006F0076006500610062006C0065002000650071007500690070006D0065006E007400000000000000FFFEFF052D005000650070006C0002000000FFFEFF06500065006F0070006C006500000000000000FFFEFF052D00440065006D006F0002000000FFFEFF0A440065006D006F006C006900740069006F006E0000
310
0000000000FFFEFF052D00430075007200740002000000FFFEFF0C4300750072007400610069006E002000570061006C006C00000000000000FFFEFF052D005700640077006B0002000000FFFEFF164100720063006800690074006500630074007500720061006C00200077006F006F00640077006F0072006B0000000000
310
0000FFFEFF052D004E006F007400650002000000FFFEFF054E006F00740065007300000000000000FFFEFF052D004F0076006800640002000000FFFEFF084F007600650072006800650061006400000000000000FFFEFF052D00530075006200740002000000FFFEFF14530075006200740072006100630074006900760065
310
00200065006C0065006D0065006E0074007300000000000000FFFEFF052D00530044004600460002000000FFFEFF1053007500700070006C0079002000640069006600660075007300650072007300000000000000FFFEFF052D00530074006F00720002000000FFFEFF19530079007300740065006D002000730074006F00
310
7200610067006500200063006F006D0070006F006E0065006E0074007300000000000000FFFEFF052D004900640065006E0002000000FFFEFF134900640065006E00740069006600690063006100740069006F006E0020005400610067007300000000000000FFFEFF052D004800720061006C0002000000FFFEFF16480061
310
006E0064007200610069006C0073002C0020006700750061007200640020007200610069006C007300000000000000FFFEFF052D00570069006400650002000000FFFEFF19570069006400650020007700650069006700680074002000670072006100700068006900630020006C0069006E0065007300000000000000FFFE
310
FF052D004D0061007300730002000000FFFEFF104D0061007300730069006E006700200045006C0065006D0065006E0074007300000000000000FFFEFF052D004C0069006E00650002000000FFFEFF0D44006500660069006E0069006E00670020004C0069006E006500000000000000FFFEFF052D00560069006500770002
310
000000FFFEFF13560069006500770070006F0072007400200044006500660069006E006900740069006F006E00000000000000FFFEFF052D0050006B006E00670002000000FFFEFF075000610072006B0069006E006700000000000000FFFEFF052D00520044004600460002000000FFFEFF14520065007400750072006E00
310
20006100690072002000640069006600660075007300650072007300000000000000FFFEFF052D00530065006100740002000000FFFEFF07530065006100740069006E006700000000000000FFFEFF052D0050006E006C00730002000000FFFEFF0D530079007300740065006D002000700061006E0065006C007300000000
310
000000FFFEFF052D004D0061007400630002000000FFFEFF0B4D00610074006300680020006C0069006E0065007300000000000000FFFEFF052D00410064007400760002000000FFFEFF1141006400640069007400690076006500200065006C0065006D0065006E0074007300000000000000FFFEFF052D00430068006100
310
730002000000FFFEFF0543006800610073006500000000000000FFFEFF052D005300700063006C0002000000FFFEFF0B5300700065006300690061006C007400690065007300000000000000FFFEFF052D00470072006900640002000000FFFEFF044700720069006400000000000000FFFEFF052D004E00690063006E0002
310
000000FFFEFF0F4E006F007400200069006E00200063006F006E0074007200610063007400000000000000FFFEFF052D004D0063007500740002000000FFFEFF164D00610069006E00200063007500740020006C0069006E006500200065006C0065006D0065006E0074007300000000000000FFFEFF052D00460069007200
310
650002000000FFFEFF0A46006900720065002000770061006C006C007300000000000000FFFEFF052D00530069006C006C0002000000FFFEFF0C570069006E0064006F0077002000730069006C006C007300000000000000FFFEFF052D005400700074006E0002000000FFFEFF1154006F0069006C00650074002000700061
310
00720074006900740069006F006E007300000000000000FFFEFF052D00520069007300720002000000FFFEFF0C530074006100690072002000720069007300650072007300000000000000FFFEFF052D004F0074006C006E0002000000FFFEFF074F00750074006C0069006E006500000000000000FFFEFF052D0054007400
310
6C00620002000000FFFEFF1642006F007200640065007200200061006E00640020007400690074006C006500200062006C006F0063006B000000000000000180FFFEFF074D0069006E006F0072002000320005000000004164642062656C6F77207468652073656C6563746564206974656DFFFEFF001600FFFEFF052D0041
310
0062006F00760002000000FFFEFF0E45006C0065006D0065006E00740073002000610062006F0076006500000000000000FFFEFF052D00420064007200790002000000FFFEFF0D4500640067006500200062006F0075006E006400610072007900000000000000FFFEFF052D005400680069006E0002000000FFFEFF0E4D00
310
69006E006F00720020006C0069006E00650077006F0072006B00000000000000FFFEFF052D004E0070006C00740002000000FFFEFF154E006F006E002D0070006C006F007400740069006E006700200065006C0065006D0065006E0074007300000000000000FFFEFF052D005200650066006C0002000000FFFEFF0F520065
310
0066006C0065006300740065006400200050006C0061006E007300000000000000FFFEFF052D00440069006D00730002000000FFFEFF0A440069006D0065006E00730069006F006E007300000000000000FFFEFF052D005300630061006C0002000000FFFEFF10470072006100700068006900630061006C00200053006300
310
61006C0065007300000000000000FFFEFF052D0053006C006300650002000000FFFEFF0653006C006900630065007300000000000000FFFEFF052D0047006C0061007A0002000000FFFEFF0747006C0061007A0069006E006700000000000000FFFEFF052D00460061007300630002000000FFFEFF06460061007300630069
310
006100000000000000FFFEFF052D00470072007000730002000000FFFEFF06470072006F00750070007300000000000000FFFEFF052D005400690074006C0002000000FFFEFF065400690074006C0065007300000000000000FFFEFF052D00530066006900740002000000FFFEFF0653006F00660066006900740000000000
310
0000FFFEFF052D00500061007400740002000000FFFEFF0E4800610074006300680020007000610074007400650072006E007300000000000000FFFEFF052D00480069006400650002000000FFFEFF0F480069006400640065006E00200065006C0065006D0065006E0074007300000000000000FFFEFF052D004E006F0074
310
00650002000000FFFEFF16470065006E006500720061006C0020005400650078007400200061006E00640020004E006F00740065007300000000000000FFFEFF052D0055006E006900740002000000FFFEFF0455006E0069007400000000000000FFFEFF052D004900640065006E0002000000FFFEFF0A4900640065006E00
310
740069006600690065007200000000000000FFFEFF052D004C0069006E00650002000000FFFEFF10470065006E006500720061006C0020006C0069006E00650077006F0072006B00000000000000FFFEFF052D00530069006C006C0002000000FFFEFF05530069006C006C007300000000000000FFFEFF052D005200690073
310
00720002000000FFFEFF06520069007300650072007300000000000000FFFEFF052D004F0074006C006E0002000000FFFEFF074F00750074006C0069006E0065000000000000000180FFFEFF06530074006100740075007300060000000000000000A434770470040000B10000005073770400000000050000FFFEFF000F00
310
FFFEFF022D00310002000000FFFEFF075000680061007300650020003100000000000000FFFEFF022D00320002000000FFFEFF075000680061007300650020003200000000000000FFFEFF022D00540002000000FFFEFF0E540065006D0070006F007200610072007900200077006F0072006B00000000000000FFFEFF022D
310
00330002000000FFFEFF075000680061007300650020003300000000000000FFFEFF022D00440002000000FFFEFF144500780069007300740069006E006700200074006F002000640065006D006F006C00690073006800000000000000FFFEFF022D00340002000000FFFEFF07500068006100730065002000340000000000
310
0000FFFEFF022D00450002000000FFFEFF124500780069007300740069006E006700200074006F002000720065006D00610069006E00000000000000FFFEFF022D00350002000000FFFEFF075000680061007300650020003500000000000000FFFEFF022D00460002000000FFFEFF0B460075007400750072006500200077
310
006F0072006B00000000000000FFFEFF022D00360002000000FFFEFF075000680061007300650020003600000000000000FFFEFF022D00370002000000FFFEFF075000680061007300650020003700000000000000FFFEFF022D00380002000000FFFEFF075000680061007300650020003800000000000000FFFEFF022D00
310
390002000000FFFEFF075000680061007300650020003900000000000000FFFEFF022D004D0002000000FFFEFF114900740065006D007300200074006F0020006200650020006D006F00760065006400000000000000FFFEFF022D004E0002000000FFFEFF084E0065007700200077006F0072006B000000000000000600FF
310
FF04001A004163416563556B4C61796572436F6D706F6E656E744669656C64FFFEFF174400690073006300690070006C0069006E0065002000440065007300690067006E00610074006F0072002000310001000000FFFEFF0440002C0040004000000000000100000000FFFEFF014100000000000780FFFEFF174400690073
310
006300690070006C0069006E0065002000440065007300690067006E00610074006F0072002000320001000000FFFEFF0440002C0040004000010000000100000000FFFEFF014400000000000780FFFEFF054D0061006A006F00720005000000FFFEFF052D00400040004000400000000000010000002DFFFEFF052D005700
310
61006C006C00000000000780FFFEFF064D0069006E006F007200310005000000FFFEFF022D002A0001000000010000002DFFFEFF052D004900640065006E00000000000780FFFEFF064D0069006E006F007200320005000000FFFEFF022D002A0001000000010000002DFFFEFF052D005400650078007400000000000780FF
310
FEFF0653007400610074007500730002000000FFFEFF022D002A0001000000010000002DFFFEFF022D004E0000000000050000010203040500FFFEFF00FFFEFF0320002D002000FFFEFF022C002000FFFEFF012000FFFEFF0320002D002000FFFEFF00
  0
XRECORD
  5
12A7F
102
{ACAD_REACTORS
330
12A7E
102
}
330
12A7E
100
AcDbXrecord
280
     1
102
SHADEPLOT
 70
     0
102
SHADEPLOTRESLEVEL
 70
     2
102
SHADEPLOTCUSTOMDPI
 70
   300
  0
XRECORD
  5
12A81
102
{ACAD_REACTORS
330
12A80
102
}
330
12A80
100
AcDbXrecord
280
     1
102
SHADEPLOT
 70
     0
102
SHADEPLOTRESLEVEL
 70
     2
102
SHADEPLOTCUSTOMDPI
 70
   300
  0
XRECORD
  5
12A7D
102
{ACAD_REACTORS
330
12A7C
102
}
330
12A7C
100
AcDbXrecord
280
     1
102
SHADEPLOT
 70
     0
102
SHADEPLOTRESLEVEL
 70
     2
102
SHADEPLOTCUSTOMDPI
 70
   300
  0
XRECORD
  5
12A87
102
{ACAD_REACTORS
330
12A86
102
}
330
12A86
100
AcDbXrecord
280
     1
102
MATERIAL
148
0.0
149
0.0
149
0.0
 93
        0
 94
       63
282
     0
 72
     1
 77
     1
171
     1
175
     1
179
     1
273
     0
  0
XRECORD
  5
12A85
102
{ACAD_REACTORS
330
12A84
102
}
330
12A84
100
AcDbXrecord
280
     1
102
MATERIAL
148
0.0
149
0.0
149
0.0
 93
        0
 94
       63
282
     0
 72
     1
 77
     1
171
     1
175
     1
179
     1
273
     0
  0
XRECORD
  5
12A89
102
{ACAD_REACTORS
330
12A88
102
}
330
12A88
100
AcDbXrecord
280
     1
102
MATERIAL
148
0.0
149
0.0
149
0.0
 93
        0
 94
       63
282
     0
 72
     1
 77
     1
171
     1
175
     1
179
     1
273
     0
  0
XRECORD
  5
12A83
102
{ACAD_REACTORS
330
12A82
102
}
330
12A82
100
AcDbXrecord
280
     1
102
ACAD_ROUNDTRIP_PRE2007_TABLESTYLE
 90
      512
 91
        0
  1

 92
      512
 93
        0
  2

 94
      512
 95
        0
  3

  0
ENDSEC
  0
EOF
